Oops, an error
Loading. Please wait.

A Better Place A Better Time bass

version 3
version 3

Whole song

Interactive

15,910 views 45 this week
4 commentsread comments
1 2 3 4 5
x 14
add to favorites
×
Save as Personal and add changes to this tab that will be seen only by you. Learn more ›
×
You can save this tab as Personal to edit and correct it or add notes. All changes will be seen only by you. Learn more »
launch autoscroll
font size
0
reset
guitar tuner
edit
Autoscroll
slow
fast
+/-
esc
set tempo
stop
Author
Difficulty
I cannot take credit for this tab. The origonal tab was submitted by Seney but he used 
for numbers when they got past 10. so i just put in the actuall numbers and fixed a few 
mistakes. Hope u enjoy.

Bass Intro
G|12----11--------9-----11--------12----11--------9-7-9-7---------|
D|------------------------------------------------------5---------|
A|10------------------------------10------------------------------|
E|------7---------8-----10--------------7---------8----(3)--------|

G|12----11--------9-----11--------------9---------0---12----------|
D|--------------------------------9-------------------------------|
A|10----------------------------------------------10(le10 ring)---|
E|------7---------8-----10--------7-----8-------------------------|

Verse 1
G|--------------------------------------------------------------------|
D|--------9-9---9---------10-10--10----------9-9---9-------10-10--10--|
A|10-10--10---------7-7---7---------10-10--10---------7-7---7---------|
E|--------------------------------------------------------------------|

G|-------------------------------------------------------------------------------------|
D|------------9-9-9-9--10-10-10-10-12-12-12-12-------------9-9-9-9---10-10-10-10-------|
A|10-10-10-10----------------------------------10-10-10-10----------------------5--5--5|
E|-------------------------------------------------------------------------------------|

G|----------------------------------------------------------------|
D|----------------------------------------------------------------|
A|--------2-2-2-2---------3-3-3-2---------2-2-2-2---------3-3-3-2-|
E|3-3-3-3---------0-0-0-0---------3-3-3-3---------0-0-0-0---------|

G|----------------------------------------------------------------|
D|----------------------------------------------------------------|
A|--------2-2-2-2-3-3-3-3-5-5-5-5---------2-2-2-223-3-3-335-5-5-5-|
E|3-3-3-3-------------------------3-3-3-33------------------------|

G|----------------------------------------------------------------|
D|----------------------------------------------------------------|
A|3-----3-3---2---------------2---3-----3-3---2-------------------|
E|----------------3-----3-3-----------------------3-----3-3---2---|

G|------------------------4---4--4----5---9---5---8---5---3---5---|
D|--------9-------------------------------------------------------|
A|------7---7-2---2----------------3------------------------------|
E|0---------------------------------------------------------------|

Chorus1
G|----------------------------------------------------------------|
D|----------------------------------------------------------------|
A|----------------------------Pause......-------------------------|
E|3\--------------------------------------------------------------|

Post Chorus 1
G|----------------------------------------------------4-----------|
D|--------------------------------------------------5---5---------|
A|----2-5-2-2-2-2---------3-3-3-3-----2-5-2-2-2-2---------3-3-3-3-|
E|3-3-------------0-0-0-0---------3-3-------------0---------------|

G|--------------------5-------------------------------4-----------|
D|------------------5---5---------------------------5---5---------|
A|----2-5-2-2-2-2---------3-3-3-3-----2-5-2-2-2-2---------3-3-3-3-|
E|3-3-------------0---------------3-3-------------0---------------|

G|----------------------------------------------------------------|
D|----------------------------------------------------------------|
A|----------------------------Pause......-------------------------|
E|3\--------------------------------------------------------------|

Verse 2
G|----------------------------------------------------------------|
D|----------------------------------------------------------------|
A|--------2-2-2-2-3-3-3-3-5-5-5-5---------2-2-2-2-3-3-3-3-5-5-5-5-|
E|3-3-3-3-------------------------3-3-3-3-------------------------|

G|----------------------------------------------------------------|
D|----------------------------------------------------------------|
A|------------------------5-5-5-5---------2-2-2-2-3-3-3-3-5-5-5-5-|
E|3-3-3-3-2-2-2-2-0-0-0-0---------3-3-3-3-------------------------|

Bridge 1
G|----------------------------------------------------------------|
D|----------------------------------------------------------------|
A|---------------------------...but I hope so bad that------------|
E|3\-----------------------------------you bathe and hunt...------|

G|----------------------------------------------------------------|
D|----------------------------------------------------------------|
A|--------2-2-2-2-3-3-3-3-5-5-5-5---------2-2-2-2-3-3-3-3-5-5-5-5-|
E|3-3-3-3-------------------------3-3-3-3-------------------------|

G|----------------------------------------------------------------|
D|----------------------------------------------------------------|
A|------------------------5-5-5-5---------2-2-2-2-3-3-3-3-5-------|
E|3-3-3-3-2-2-2-2-0-0-0-0---------3-3-3-3-------------------------|

Verse 3
G|----------------------------------------------------------------|
D|----------------------------------------------------------------|
A|--------2-2-2-2-3-3-3-3-5-5-5-5---------2-2-2-2-3-3-3-3-5-5-5-5-|
E|3-3-3-3-------------------------3-3-3-3-------------------------|

G|----------------------------------------------------------------|
D|----------------------------------------------------------------|
A|------------------------5-5-5-5---------2-2-2-2-3-3-3-3-5-5-5-5-|
E|3-3-3-3-2-2-2-2-0-0-0-0---------3-3-3-3-------------------------|

G|----------------------------------------------------------------|
D|----------------------------------------------------------------|
A|--------2-2222223-3333335-555555--------2-2222223-3333335-555555|
E|3-333333------------------------3-333333------------------------|

G|----------------------------------------------------------------|
D|----------------------------------------------------------------|
A|------------------------5-5-5-5---------2-2-2-2-3-3-3-3-5-5-5-5-|
E|3-3-3-3-2-2-2-2-0-0-0-0---------3-3-3-3-------------------------|

Bridge 2
G|----------------------------------------------------------------|
D|----------------------------------------------------------------|
A|----7---------7-3---3-----3---5-----7---------7-3---3-----3---5-|
E|0---------0---------------------0---------0---------------------|

G|----------------------------------------------------------------|
D|----------------------------------------------------------------|
A|--------2-------3-------5---------------2-2-2-2-3-3-3-3-5-5-5-5-|
E|0-------------------------------0-0-0-0-------------------------|

G|--------------------------------|
D|--------------------------------|
A|5-5-5-5-5-5-5-5-5---------------|
E|--------------------------------|

Chorus 2 (x2)
G|----------------------------------------------------------------|
D|----------------------------------------------------5-------7---|
A|----------------5---5-5-5-5-5-9-7---7-7-7-7-7-5-3-5---5-3-5---5-|
E|3---3-3-3-3-3-3-------------------------------------------------|

G|----------------------------------------------------------------|
D|----------------------------------------------------------------|
A|----------------5-----5-5-----------------------3-------5-------|
E|3-----3-3-----------------------0-----0-0---0-------------------|

G|----------------------------------------------------------------|
D|----------------------------------------------------5-----------|
A|----------------5---5-5-5-5-5-9-7---7-7-7-7-7-5-3-5---7-5-------|
E|3---3-3-3-3-3-3-------------------------------------------------|


Verse 4
G|----------------------------------------------------------------|
D|----------------------------------------------------------------|
A|--------2-2-2-2-3-3-3-3-5-5-5-5---------2-2-2-2-3-3-3-3-5-5-5-5-|
E|3-3-3-3-------------------------3-3-3-3-------------------------|

G|----------------------------------------------------------------|
D|----------------------------------------------------------------|
A|------------------------5-5-5-5---------2-2-2-2-3-3-3-3-5-5-5-5-|
E|3-3-3-3-2-2-2-2-0-0-0-0---------3-3-3-3-------------------------|

G|----------------------------------------------------------------|
D|----------------------------------------------------------------|
A|--------2-2-2-2-3-3-3-3-5-5-5-5---------2-2-2-2-3-3-3-3-5-5-5-5-|
E|3-3-3-3-------------------------3-3-3-3-------------------------|

G|----------------------------------------------------------------|
D|----------------------------------------------------------------|
A|10101010-9-9-9-9-7-7-7-7-5-5-5-5---------2-2-2-2-3-3-3-3-5-5-5-5|
E|---------------------------------3-3-3-3------------------------|

Bridge 3
G|----------------------------------------------------------------|
D|----------------------------------------------------------------|
A|----7---------7-3---3-----3---5-----7---------7-3---3-----3---5-|
E|0---------0---------------------0---------0---------------------|

G|----------------------------------------------------------------|
D|----------------------------------------------------------------|
A|--------2-------3-------5---------------2-2-2-2-3-3-3-3-5-5-5-5-|
E|0-------------------------------0-0-0-0-------------------------|

G|--------------------------------|
D|--------------------------------|
A|5-5-5-5-5-5-5-5-5---------------|
E|--------------------------------|

Chorus 3 (x2)
G|----------------------------------------------------------------|
D|----------------------------------------------------5-------7---|
A|----------------5---5-5-5-5-5-9-7---7-7-7-7-7-5-3-5---5-3-5---5-|
E|3---3-3-3-3-3-3-------------------------------------------------|

G|----------------------------------------------------------------|
D|----------------------------------------------------------------|
A|----------------5-----5-5---5-------------------3-3-3-3-5-5-5-5-|
E|3-----3-3---3-------------------0-----0-0---0-------------------|

G|----------------------------------------------------------------|
D|----------------------------------------------------5-----------|
A|----------------5---5-5-5-5-5-9-7---7-7-7-7-7-5-3-5---7-5-------|
E|3---3-3-3-3-3-3-------------------------------------------------|

Bridge 4
G|----------------------------------------------------------------|
D|----------------------------------------------------------------|
A|----------------2-----2-2-----------------------3-3-3-3-3--2--0-|
E|3-3---3-3-----------------------0-----0-0-----------------------|

G|----------------------------------------------------------------|
D|----------------------------------------------------------------|
A|----------------2-------2-----------------------3-------3--2--0-|
E|3-3---3-3----------------------0-0-0-0-0------------------------|

G|----------------------------------------------------------------|
D|----------------------------------------------------------------|
A|----------------2-----2-2-----------------------3-3-3-3-3--2--0-|
E|3-3---3-3-----------------------0-----0-0-----------------------|

G|----------------------------------------------------------------|
D|----------------------------------------------------------------|
A|----------------2-------2---------------------------------------|
E|3-3---3-3----------------------0-0-0-0-0--------8-------8\------|

G|----------------------------------------------------------------|
D|----------------------------------------------------------------|
A|----------------------------Pause......-------------------------|
E|3\--------------------------------------------------------------|

Verse 5
G|----------------------------------------------------------------|
D|----------------------------------------------------------------|
A|--------2-2-2-2-3-3-3-3-5-5-5-5---------2-2-2-2-3-3-3-3-5-5-5-5-|
E|3-3-3-3-------------------------3-3-3-3-------------------------|

G|----------------------------------------------------------------|
D|----------------------------------------------------------------|
A|------------------------5---------------2---2-2-3---3-3-5---5-5-|
E|3----3-3-2------0---------------3---3-3-------------------------|

G|----------------------------------------------------------------|
D|----------------------------------------------------------------|
A|--------2-2-2-2-3-3-3-3-5-5-5-5---------2-2-2-2-3-3-3-3-5-5-5-5-|
E|3-3-3-3-------------------------3-3-3-3-------------------------|

G|----------------------------------------%%%%%%%%%%%%%%%%%%%%----|
D|----------------------------------------%%%%%%%%%%%%%%%%%%%%----|
A|5-5-5-5-5-5-5-5-5-5-5-5-5---5---5-------%%%%%% PAUSE %%%%%%%-3/-|
E|------------------------------------3\--%%%%%%%%%%%%%%%%%%%%----|

Chorus4
G|----------------------------------9----12--12-9-------------------|
D|------------9-10-12----10--9-10-12--------------10----10-12----12-|
A|10---10--10-------------------------------------------------------|
E|------------------------------------------------------------------|

G|----------------------------------9---12--12--9-------------------|
D|------------9-10-12---10-9-10-12---------------12-10---10-12-10---|
A|10---10--10-------------------------------------------------------|
E|------------------------------------------------------------------|

Ending
G|----------------------------------------16----------------------|
D|------------4---4-----4-7-5-4-4-------14----14\-----------------|
A|--------5-5---5-----5-----------7---------------3-----3-2---0---|
E|3-----3---------------------------------------------------------|

G|----------------------------------------16----------------------|
D|------------4---4-----4-7-5-4-4-------14----14\-----------------|
A|--------5-5---5-----5-----------7---------------3-------2-------|
E|3-----3---------------------------------------------------------|

G|----------------------------------------------------------------|
D|--------5-------4---2---0---------------9-----------------------|
A|--------------------------------7-------------------7---5-------|
E|3-----------------------------------------------8---------------|

G|----------------------------------------------------------------|
D|----------------------------------------------------------------|
A|--------------------5---5-----------------------3---3---5-------|
E|3-------3-----------------------0-------------------------------|

G|----------------------------------------------------------------|
D|----------------------------------------------------------------|
A|----------------------------------------------------------------|
E|3---------------------------------------------------------------|

            
            
Suggest correction
Creating personal tab
Creating personal tab
You can edit any tab online and save it as your Personal.

You can edit, replace or remove any tab part or add personal notes – all changes will be seen only by you.

Personal tabs can be accessed anytime from any device, even offline.
Learn more »
comments
print report bad tab
4 comments total. Showing first comments. show 1 bad comment
0 reply
Weaponized 41 Jan 28, 2012 03:18 PM

Just got a bass, this is the first song I learned.

+1 reply
CauseAhRiot 102 Apr 04, 2012 05:35 PM

Dakota_s_ is retarded. Same song. Doesn't matter how many strings.

guest
You may want to rate the tab now too:
select rating
Wanna post a correction for this tab? Suggest correction