Oops, an error
Loading. Please wait.

A Better Place A Better Time tab

version 3
version 3

Whole song

Interactive

5,158 views 3 this week
1 commentread comment
1 2 3 4 5
3 more votes to show rating
add to favorites
×
Save as Personal and add changes to this tab that will be seen only by you. Learn more ›
×
You can save this tab as Personal to edit and correct it or add notes. All changes will be seen only by you. Learn more »
launch autoscroll
font size
0
reset
how to read this tab
guitar tuner
edit
Autoscroll
slow
fast
+/-
esc
set tempo
stop
                                                                       
E  :----------------|----------------|----------------|----------------|
B  :----------------|----------------|----------------|----------------|
G  :----------------|----------------|----------------|----------------|
D  :------------4---|----------------|2-------x---4---|----------------|
A  :5-------x---2---|----------------|3-------x---5---|----------------|
E  :3-------x-------|----------------|----------------|----------------|

                                                                       
E  :----------------|----------------|----------------|----------------|
B  :----------------|----------------|----------------|----------------|
G  :----------------|----------------|----------------|----------------|
D  :*-----------4---|----------------|2---0---2---*---|----------------|
A  :5-------x---2---|----------------|3-----------5---|----------------|
E  :3-------x-------|----------------|------------3---|----------------|

                                                                       
E  :----------------|----------------|----------------|----------------|
B  :----------------|----------------|----------------|----------------|
G  :----------------|----------------|----------------|----------------|
D  :------------4---|----------------|2-------x---4---|----------------|
A  :5-------x---2---|----------------|3-------x---5---|----------------|
E  :3-------x-------|----------------|----------------|----------------|

                                                           
E  :----------------|----------------|----------3----------|
B  :----------------|----------------|--------3------------|
G  :----------------|----0-----------|------4--------------|
D  :--------0-------|2---------------|----5----------------|
A  :----2-------3---|--------5-------|--5------------------|
E  :3---------------|--------3-------|3--------------------|

                                                                       
E  :----------------|----------------|----------------|----------------|
B  :----------------|----------------|----------------|----------------|
G  :----------------|----------------|----------------|----------------|
D  :----------------|*-------4-4-*-4-|*-------5-5-*-5-|*-------4-4-*-4-|
A  :----------------|5-5-*-5-2-2-*-2-|2-2-*-2-3-3-*-3-|5-5-*-5-2-2-*-2-|
E  :----------------|3-3-*-3-*-------|0-0-*-0-*-------|3-3-*-3-*-------|

                                                                       
E  :----------------|----------------|----------------|----------------|
B  :----------------|----------------|----------------|----------------|
G  :----------------|----------------|----------------|----------------|
D  :*-------5-5-*-5-|--------4-4-4-4-|5-5-5-5-7-7-7-7-|*-------4-4-4-4-|
A  :2-2-*-2-3-3-*-3-|5-5-5-5-2-2-2-2-|3-3-3-3-5-5-5-5-|5-5-5-5-2-2-2-2-|
E  :0-0-*-0-*-------|3-3-3-3-*-------|----------------|3-3-3-3-*-------|

                                                                       
E  :----------------|----------------|----------------|----------------|
B  :----------------|----------------|----------------|----------------|
G  :----------------|----------------|----------------|----------------|
D  :5-5-5-5-7--7--7-|*-------4-4-4-4-|5-5-5-5-7-7-7-7-|*-------4-4-4-4-|
A  :3-3-3-3-5--5--5-|5-5-5-5-2-2-2-2-|3-3-3-3-5-5-5-5-|5-5-5-5-2-2-2-2-|
E  :----------------|3-3-3-3-*-------|----------------|3-3-3-3-*-------|

                                                                       
E  :----------------|----------------|----------------|----------------|
B  :----------------|----------------|----------------|----------------|
G  :----------------|----------------|----------------|----------------|
D  :5-5-5-5-7-7-7-7-|*-------4-4-4-4-|5-5-5-5-7-7-7-7-|*-------4-4-4-4-|
A  :3-3-3-3-5-5-5-5-|5-5-5-5-2-2-2-2-|3-3-3-3-5-5-5-5-|5-5-5-5-2-2-2-2-|
E  :----------------|3-3-3-3-*-------|----------------|3-3-3-3-*-------|

                                                                       
E  :----------------|----------------|----------------|----------------|
B  :----------------|----------------|----------------|----------------|
G  :----------------|----------------|----------------|----------------|
D  :5-5-5-5-7--7--7-|5-*--5--5-*5-*2-|*-----------4-*-|5-*--5--5-*5-*2-|
A  :3-3-3-3-5--5--5-|3-*--3--3-*2-*0-|5-*--5--5-*-2-*-|3-*--3--3-*2-*0-|
E  :----------------|----------------|3-*--3--3-*-----|----------------|

                                                                       
E  :----------------|--------0-----0-|*---------------|----------------|
B  :----------------|--------0-----0-|*-------4-----4-|*-------5-----5-|
G  :----------------|--------0-----0-|4---4---4-----4-|5---5---5-----5-|
D  :*---------------|2---2---2-----2-|4---4---4-----4-|5---5---5-----5-|
A  :*-------5-*-5-*-|2---2---2-------|2---2---2-----2-|3---3---3-----3-|
E  :--------3-*-2-*-|0---0-----------|*---------------|----------------|

                                                                       
E  :----------------|----3-*-----3---|*---------------|*---7-*-----7---|
B  :*-------4-----4-|*---3-*-----3---|*---7-*-----7---|*---8-*-----8---|
G  :5---5---5-----5-|*---4-*-----4---|*---7-*-----7---|*---9-*-----9---|
D  :5---5---5-----5-|*---5-*-----5---|7---7-*-----7---|9---9-*-----9---|
A  :3---3---3-----3-|5---5-*-----5---|5---5-*-----5---|7---7-*-----7---|
E  :----------------|3---3-*-----3---|*---------------|0---*-----------|

                                                                       
E  :*---------------|----3-*-----3---|*---------------|*---7-*-----7---|
B  :*---5---*---7---|*---3-*-----3---|*---7-*-----7---|*---8-*-----8---|
G  :*---5---*---7---|*---4-*-----4---|*---7-*-----7---|*---9-*-----9---|
D  :5---5---7---7---|*---5-*-----5---|7---7-*-----7---|9---9-*-----9---|
A  :3---3---5---5---|5---5-*-----5---|5---5-*-----5---|7---7-*-----7---|
E  :----------------|3---3-*-----3---|*---------------|0---*-----------|

                                                                       
E  :*---------------|----------------|----------------|----------------|
B  :5-------7-------|*---------------|----------------|----------------|
G  :5-------7-------|*---------------|----------------|----------------|
D  :5-------7-------|*-------4-4-4-4-|5-5-5-5-7-7-7-7-|*-------4-4-4-4-|
A  :3-------5-------|5-5-5-5-2-2-2-2-|3-3-3-3-5-5-5-5-|5-5-5-5-2-2-2-2-|
E  :----------------|3-3-3-3-*-------|----------------|3-3-3-3-*-------|

                                                                       
E  :----------------|----------------|----------------|----------------|
B  :----------------|----------------|----------------|----------------|
G  :----------------|----------------|----------------|----------------|
D  :5-5-5-5-7-7-7-7-|*-------4-4-4-4-|5-5-5-5-7-7-7-7-|*-------4-4-4-4-|
A  :3-3-3-3-5-5-5-5-|5-5-5-5-2-2-2-2-|3-3-3-3-5-5-5-5-|5-5-5-5-2-2-2-2-|
E  :----------------|3-3-3-3-*-------|----------------|3-3-3-3-*-------|

                                                                       
E  :----------------|----------------|----------------|----------------|
B  :----------------|----------------|----------------|----------------|
G  :----------------|----------------|----------------|----------------|
D  :5-5-5-5-7--7--7-|*-------4-4-4-4-|5-5-5-5-7-7-7-7-|*-------4-4-4-4-|
A  :3-3-3-3-5--5--5-|5-5-5-5-2-2-2-2-|3-3-3-3-5-5-5-5-|5-5-5-5-2-2-2-2-|
E  :----------------|3-3-3-3-*-------|----------------|3-3-3-3-*-------|

                                                                       
E  :----------------|----------------|----------------|----------------|
B  :----------------|----------------|----------------|----------------|
G  :----------------|----------------|----------------|----------------|
D  :5-5-5-5-7-7-7-7-|*-------4-4-4-4-|5-5-5-5-7-7-7-7-|*-------4-4-4-4-|
A  :3-3-3-3-5-5-5-5-|5-5-5-5-2-2-2-2-|3-3-3-3-5-5-5-5-|5-5-5-5-2-2-2-2-|
E  :----------------|3-3-3-3-*-------|----------------|3-3-3-3-*-------|

                                                                       
E  :----------------|----------------|----------------|--------7-------|
B  :----------------|----------------|----------------|----8-----8---8-|
G  :----------------|----------------|----------------|------9-----9---|
D  :5-5-5-5-7-7-7-7-|*---------------|7-7-7-7-7-7-7-7-|*-9-------------|
A  :3-3-3-3-5-5-5-5-|5-5-5-5-5-5-5-5-|5-5-5-5-5-5-5-5-|7---------------|
E  :----------------|3-3-3-3-3-3-3-3-|*---------------|----------------|

                                                                       
E  :*---------------|----------------|----------------|--------7-------|
B  :*---------------|----------------|----------------|----8-----8---8-|
G  :*---------------|----------------|----------------|------9-----9---|
D  :5-5-5-5-7-7-7-7-|*---------------|7-7-7-7-7-7-7-7-|*-9-------------|
A  :3-3-3-3-5-5-5-5-|5-5-5-5-5-5-5-5-|5-5-5-5-5-5-5-5-|7---------------|
E  :----------------|3-3-3-3-3-3-3-3-|*---------------|----------------|

                                                                       
E  :*---------------|----------------|----------------|--------7-------|
B  :*---------------|----------------|----------------|----8-----8---8-|
G  :*---------------|----------------|----------------|------9-----9---|
D  :5-5-5-5-7-7-7-7-|*---------------|7-7-7-7-7-7-7-7-|*-9-------------|
A  :3-3-3-3-5-5-5-5-|5-5-5-5-5-5-5-5-|5-5-5-5-5-5-5-5-|7---------------|
E  :----------------|3-3-3-3-3-3-3-3-|*---------------|----------------|

                                                                       
E  :*---------------|----------------|----------------|--------7-------|
B  :*---------------|----------------|----------------|----8-----8---8-|
G  :*---------------|----------------|----------------|------9-----9---|
D  :5-5-5-5-7-7-7-7-|*---------------|7-7-7-7-7-7-7-7-|*-9-------------|
A  :3-3-3-3-5-5-5-5-|5-5-5-5-5-5-5-5-|5-5-5-5-5-5-5-5-|7---------------|
E  :----------------|3-3-3-3-3-3-3-3-|*---------------|----------------|

                                                                       
E  :*---------------|3---------------|*---------------|----------------|
B  :5-------7-------|3---------------|*---------------|----------------|
G  :5-------7-------|4---------------|*-----------4---|----5-------7---|
D  :5-------7-------|5---------------|*---5-----4---4-|--5---5---7---7-|
A  :3-------5-------|5---------------|*-5---5-2-------|3-------5-------|
E  :----------------|3---------------|3-------*-------|----------------|

                                                                       
E  :*---------------|----------------|*---------------|----------------|
B  :*---------------|----------------|*---------------|----------------|
G  :*-----------4---|----5-------7---|*-----------4---|----5-------7---|
D  :*---5-----4---4-|--5---5---7---7-|*---5-----4---4-|--5---5---7---7-|
A  :*-5---5-2-------|3-------5-------|*-5---5-2-------|3-------5-------|
E  :3-------*-------|----------------|3-------*-------|----------------|

                                                                       
E  :*---------------|----------------|*---------------|----------------|
B  :*---------------|----------------|*---------------|----------------|
G  :*-----------4---|----5-------7---|*-----------4---|----5-------7---|
D  :*---5-----4---4-|--5---5---7---7-|*---5-----4---4-|--5---5---7---7-|
A  :*-5---5-2-------|3-------5-------|*-5---5-2-------|3-------5-------|
E  :3-------*-------|----------------|3-------*-------|----------------|

                                                                       
E  :*---------------|----------------|*---------------|----------------|
B  :*---------------|----------------|*---------------|----------------|
G  :*-----------4---|----5-------7---|*-----------4---|----5-------7---|
D  :*---5-----4---4-|--5---5---7---7-|*---5-----4---4-|--5---5---7---7-|
A  :*-5---5-2-------|3-------5-------|*-5---5-2-------|3-------5-------|
E  :3-------*-------|----------------|3-------*-------|----------------|

                                                                         
E  :*---------------|----------------|*---------------|*-----------------|
B  :*---------------|----------------|*---------------|*-----------------|
G  :*-----------4---|----5-------7---|*-------5--5--5-|*---------5--5--5-|
D  :*---5-----4---4-|--5---5---7---7-|2-*---2-5--5--5-|*2-2-2--2-5--5--5-|
A  :*-5---5-2-------|3-------5-------|2-*---2-3--3--3-|*2-2-2--2-3--3--3-|
E  :3-------*-------|----------------|0-*---0-*-------|*0-0-0--0-*-------|

                                                                       
E  :*---------------|----------------|----------------|----3-*-----3---|
B  :*---------------|----------------|--------------*-|*---3-*-----3---|
G  :*-------5--5--5-|7--7--7--7--7--7|--7--7--7--7--*-|*---4-*-----4---|
D  :2-*---2-5--5--5-|7--7--7--7--7--7|--7--7--7--7--*-|*---5-*-----5---|
A  :2-*---2-3--3--3-|5--5--5--5--5--5|--5--5--5--5--*-|5---5-*-----5---|
E  :0-*---0-*-------|----------------|----------------|3---3-*-----3---|

                                                                       
E  :*---------------|*---7-*-----7---|*---------------|----3-*-----3---|
B  :*---7-*-----7---|*---8-*-----8---|*---5---*---7---|*---3-*-----3---|
G  :*---7-*-----7---|*---9-*-----9---|*---5---*---7---|*---4-*-----4---|
D  :7---7-*-----7---|9---9-*-----9---|5---5---7---7---|*---5-*-----5---|
A  :5---5-*-----5---|7---7-*-----7---|3---3---5---5---|5---5-*-----5---|
E  :*---------------|0---*-----------|----------------|3---3-*-----3---|

                                                                       
E  :*---------------|*---7-*-----7---|*---------------|----3-*-----3---|
B  :*---7-*-----7---|*---8-*-----8---|*---5---*---7---|*---3-*-----3---|
G  :*---7-*-----7---|*---9-*-----9---|*---5---*---7---|*---4-*-----4---|
D  :7---7-*-----7---|9---9-*-----9---|5---5---7---7---|*---5-*-----5---|
A  :5---5-*-----5---|7---7-*-----7---|3---3---5---5---|5---5-*-----5---|
E  :*---------------|0---*-----------|----------------|3---3-*-----3---|

                                                                       
E  :*---------------|*---7-*-----7---|*---------------|----3-*-----3---|
B  :*---7-*-----7---|*---8-*-----8---|*---5---*---7---|*---3-*-----3---|
G  :*---7-*-----7---|*---9-*-----9---|*---5---*---7---|*---4-*-----4---|
D  :7---7-*-----7---|9---9-*-----9---|5---5---7---7---|*---5-*-----5---|
A  :5---5-*-----5---|7---7-*-----7---|3---3---5---5---|5---5-*-----5---|
E  :*---------------|0---*-----------|----------------|3---3-*-----3---|

                                                                       
E  :*---------------|*---7-*-----7---|----------------|*---------------|
B  :*---7-*-----7---|*---8-*-----8---|5-------7-------|*---------------|
G  :*---7-*-----7---|*---9-*-----9---|5-------7-------|*---------------|
D  :7---7-*-----7---|9---9-*-----9---|5-------7-------|*---------------|
A  :5---5-*-----5---|7---7-*-----7---|3-------5-------|5-5-5-5-5-5-5-5-|
E  :*---------------|0---*-----------|----------------|3-3-3-3-3-3-3-3-|

                                     didnt finish in  case you don't 
E  :----------------|----------------|----------------|*---------------|
B  :----------------|----------------|----------------|*---------------|
G  :----------------|----------------|----------------|*---------------|
D  :7-7-7-7-7-7-7-7-|9-9-9-9-9-9-9-9-|5-5-5-5-7-7-7-7-|*---------------|
A  :5-5-5-5-5-5-5-5-|7-7-7-7-7-7-7-7-|3-3-3-3-5-5-5-5-|5-5-5-5-5-5-5-5-|
E  :*---------------|----------------|----------------|3-3-3-3-3-3-3-3-|

   have the full ver sion - same chor ds - figure out  the easy rhythm  
E  :----------------|----------------|----------------|3---------------|
B  :----------------|----------------|----------------|3---------------|
G  :----------------|----------------|----------------|4---------------|
D  :7-7-7-7-7-7-7-7-|9-9-9-9-9-9-9-9-|5-5-5-5-7-7-7-7-|5---------------|
A  :5-5-5-5-5-5-5-5-|7-7-7-7-7-7-7-7-|3-3-3-3-5-5-5-5-|5---------------|
E  :*---------------|----------------|----------------|3---------------|

            
            
Suggest correction
Creating personal tab
Creating personal tab
You can edit any tab online and save it as your Personal.

You can edit, replace or remove any tab part or add personal notes – all changes will be seen only by you.

Personal tabs can be accessed anytime from any device, even offline.
Learn more »
Give kudos to tab author, rate the tab!
1 2 3 4 5
comments
print report bad tab
1 comment total.
0 reply
Ethan_Glaud 272 Jan 14, 2016 10:53 AM

It would be really helpful if the words were given with the tab, or at least where in the song it is.

guest
Wanna post a correction for this tab? Suggest correction