Oops, an error
Loading. Please wait.

Giving Up Giving In bass

version 1
version 1

Whole song

Interactive

1,837 views 1 this week
1 commentread comment
1 2 3 4 5
2 more votes to show rating
add to favorites
×
Save as Personal and add changes to this tab that will be seen only by you. Learn more ›
×
You can save this tab as Personal to edit and correct it or add notes. All changes will be seen only by you. Learn more »
launch autoscroll
font size
0
reset
guitar tuner
edit
Autoscroll
slow
fast
+/-
esc
set tempo
stop
[Streetlight Manifesto]
[Keasbey Nights]
[Giving Up, Giving In]

well this song is pretty simple :P thers a little change up every once
n a while lol so its not all the same! hehe im sure anyone coulda got
the basics of this :P here it is note for note anyway tho,
enjoy :)

G||-------|-------|-------|-------|-------|-------|-------|
D||-------|-------|-------|-------|-------|-------|-------|
A||-------|-------|-------|-------|-------|-------|-------|
E||-------|-------|-------|-------|-------|-------|-------|


-------|-------|-------|-------|-------|-------|-------|
-------|-------|-------|-------|-------|-------|-------|
-------|-------|-------|-------|-------|-------|-------|
-------|-------|-------|-------|-------|-------|-------|


          3            |----3----|     
          H.           Q    Q    Q     
-------|------------------------------|
-------|------------------------------|
-------|---------------3----2---------|
-------|-------------------------5----|


  E  E  S S E  E  E  S S E   
----------------------------|
----------------------------|
----------------------------|
--3--3--3-3-3--3--3--3-3-3--|


    E   E   S  S  E   E   E   S  S  E   
---------------------------------------|
---------------------------------------|
--/10--10--10-10-10--10--10--10-10-10--|
---------------------------------------|


   E   E   S  S  E   E   E   S  S  E   
--------------------------------------|
--------------------------------------|
--10--10--10-10-10--10--10--10-10-10--|
--------------------------------------|


   E   E   S  S  E  H            E  E  S S E  E  E  S S E   
------------------------------|----------------------------|
------------------------------|----------------------------|
--10--10--10-10-10------------|---------------5--5--5-5-5--|
--------------------8\--------|--3--3--3-3-3---------------|


               |----3----|                                  
  E  E  S S E  Q    Q    Q       E  E  S S E  E  E  S S E   
------------------------------|----------------------------|
------------------------------|----------------------------|
--2--2--2-2-2--3----2---------|---------------5--5--5-5-5--|
-------------------------5----|--3--3--3-3-3---------------|


  E  E  S S E  E  E  S S E     E  E  S S E  E  E  S S E   
----------------------------|----------------------------|
----------------------------|----------------------------|
--3--3--3-3-3--5--5--5-5-5--|---------------5--5--5-5-5--|
----------------------------|--3--3--3-3-3---------------|


               |----3----|                                  
  E  E  S S E  Q    Q    Q       E  E  S S E  E  E  S S E   
------------------------------|----------------------------|
------------------------------|----------------------------|
--2--2--2-2-2--3----2---------|---------------5--5--5-5-5--|
-------------------------5----|--3--3--3-3-3---------------|


  E  H.           E     E  E  S S E  E  E  S S E   
---------------------|----------------------------|
---------------------|----------------------------|
--3------------------|---------------3--3--3-3-3--|
---------------------|--3--3--3-3-3---------------|


  E  E  S S E  E  E  S S E     E  E  S S E  E  E  S S E   
----------------------------|----------------------------|
----------------------------|----------------------------|
--2--2--2-2-2--5--5--5-5-5--|---------------3--3--3-3-3--|
----------------------------|--3--3--3-3-3---------------|


  E  E  S S E  E  E  S S E     E  E  S S E  E  E  S S E   
----------------------------|----------------------------|
----------------------------|----------------------------|
--2--2--2-2-2--5--5--5-5-5--|---------------3--3--3-3-3--|
----------------------------|--3--3--3-3-3---------------|


  E  E  S S E  E  E  S S E     E  E  S S E  E  E  S S E   
----------------------------|----------------------------|
----------------------------|----------------------------|
--2--2--2-2-2--5--5--5-5-5--|---------------3--3--3-3-3--|
----------------------------|--3--3--3-3-3---------------|


  E  E  S S E  E  E  S S E     E  E  S S E  E  E  S S E   
----------------------------|----------------------------|
----------------------------|----------------------------|
--2--2--2-2-2--5--5--5-5-5--|--3--3--3-3-3--3--3--3-3-3--|
----------------------------|----------------------------|


  E  E  S S E  E  E  S S E     E  E  S S E  E  E  S S E   
----------------------------|----------------------------|
----------------------------|----------------------------|
----------------------------|--5--5--5-5-5--5--5--5-5-5--|
--3--3--3-3-3--3--3--3-3-3--|----------------------------|


  E  E  S S E  E  E  S S E     E  E  S S E  E  E  S S E   
----------------------------|----------------------------|
----------------------------|----------------------------|
-------------------------2--|--3--3--3-3-3--3--3--3------|
--3--3--3-3-3--3--3--3-3----|-----------------------3-5--|


  E  E  S S E  E  E  S S E     E  E  S S E  E  E  S S E   
----------------------------|----------------------------|
----------------------------|----------------------------|
----------------------------|--5--5--5-5-5--5--5--5-5-5--|
--3--3--3-3-3--3--3--3-3-3--|----------------------------|


  E  E  E  E  E  E  S S E     E  E  S S E  E  E  S S E   
---------------------------|----------------------------|
---------------------------|----------------------------|
---------------------------|---------------5--5--5-5-5--|
--3--3--3--3--3--3--3-3-3--|--3--3--3-3-3---------------|


               |----3----|                                  
  E  E  S S E  Q    Q    Q       E  E  S S E  E  E  S S E   
------------------------------|----------------------------|
------------------------------|----------------------------|
--2--2--2-2-2--3----2---------|---------------5--5--5-5-5--|
-------------------------5----|--3--3--3-3-3---------------|


  E  E  S S E  E  E  S S E     E  E  S S E  E  E  S S E   
----------------------------|----------------------------|
----------------------------|----------------------------|
--3--3--3-3-3--5--5--5-5-5--|---------------5--5--5-5-5--|
----------------------------|--3--3--3-3-3---------------|


               |----3----|                                  
  E  E  S S E  Q    Q    Q       E  E  S S E  E  E  S S E   
------------------------------|----------------------------|
------------------------------|----------------------------|
--2--2--2-2-2--3----2---------|---------------5--5--5-5-5--|
-------------------------5----|--3--3--3-3-3---------------|


  E  H.           E     E  E  S S E  E  E  S S E   
---------------------|----------------------------|
---------------------|----------------------------|
--3------------------|---------------3--3--3-3-3--|
---------------------|--3--3--3-3-3---------------|


  E  E  S S E  E  E  S S E     E  E  S S E  E  E  S S E   
----------------------------|----------------------------|
----------------------------|----------------------------|
--2--2--2-2-2--5--5--5-5-5--|---------------3--3--3-3-3--|
----------------------------|--3--3--3-3-3---------------|


  E  E  S S E  E  E  S S E     E  E  S S E  E  E  S S E   
----------------------------|----------------------------|
----------------------------|----------------------------|
--2--2--2-2-2--5--5--5-5-5--|---------------3--3--3-3-3--|
----------------------------|--3--3--3-3-3---------------|


  E  E  S S E  E  E  S S E     E  E  S S E  E  E  S S E   
----------------------------|----------------------------|
----------------------------|----------------------------|
--2--2--2-2-2--5--5--5-5-5--|---------------3--3--3-3-3--|
----------------------------|--3--3--3-3-3---------------|


  E  E  S S E  E  E  S S E     E  E  S S E  E  E  S S E   
----------------------------|----------------------------|
----------------------------|----------------------------|
--2--2--2-2-2--5--5--5-5-5--|--3--3--3-3-3--3--3---------|
----------------------------|---------------------0-0-2--|


  E  E  S S E  E  E  S S E     E  E  S S E  E  E  S S E   
----------------------------|----------------------------|
----------------------------|----------------------------|
----------------------------|--5--5--5-5-5--5--5--5-5-5--|
--3--3--3-3-3--3--3--3-3-2--|----------------------------|


  E  E  S S E  E  E  S S E     E  E  S S E  E  E  S S E   
----------------------------|----------------------------|
----------------------------|----------------------------|
-------------------------2--|--3--3--3-3-3--3--3--3-3-3--|
--3--3--3-3-3--3--3--3-3----|----------------------------|


  E  E  S S E  E  E  S S E     E  E  S S E  E  E  S S E   
----------------------------|----------------------------|
----------------------------|----------------------------|
----------------------------|--5--5--5-5-5--5--5--5-5-5--|
--3--3--3-3-3--3--3--3-3-2--|----------------------------|


  E  E  E  E  E  E  S S E     E  E  S S E  E  E  S S E   
---------------------------|----------------------------|
---------------------------|----------------------------|
---------------------------|---------------5--5--5-5-5--|
--3--3--3--3--3--3--3-3-3--|--3--3--3-3-3---------------|


               |----3----|                                  
  E  E  S S E  Q    Q    Q       E  E  S S E  E  E  S S E   
------------------------------|----------------------------|
------------------------------|----------------------------|
--2--2--2-2-2--3----2---------|---------------5--5--5-5-5--|
-------------------------5----|--3--3--3-3-3---------------|


  E  E  S S E  E  E  S S E     E  E  S S E  E  E  S S E   
----------------------------|----------------------------|
----------------------------|----------------------------|
--3--3--3-3-3--5--5--5-5-5--|---------------5--5--5-5-5--|
----------------------------|--3--3--3-3-3---------------|


               |----3----|                                  
  E  E  S S E  Q    Q    Q       E  E  S S E  E  E  S S E   
------------------------------|----------------------------|
------------------------------|----------------------------|
--2--2--2-2-2--3----2---------|---------------5--5--5-5-5--|
-------------------------5----|--3--3--3-3-3---------------|


            |----3----|                           
  E  Q.     Q    Q    Q       H         H         
---------------------------|---------------------|
---------------------------|---------------------|
--3---------3----2---------|---------------------|
----------------------5----|--3\-----------------|


-----------|-----------|-----------|-----------|-----------|
-----------|-----------|-----------|-----------|-----------|
-----------|-----------|-----------|-----------|-----------|
-----------|-----------|-----------|-----------|-----------|


-----------|-----------|-----------|-----------|-----------|
-----------|-----------|-----------|-----------|-----------|
-----------|-----------|-----------|-----------|-----------|
-----------|-----------|-----------|-----------|-----------|


                          3            |----3----|     
                          H.           Q    Q    Q     
-----------|-----------|------------------------------|
-----------|-----------|------------------------------|
-----------|-----------|---------------3----2---------|
-----------|-----------|-------------------------5----|


  E  S S E  E  E  E  E  E     E  S S E  E  E  E  E  E   
---------------------------|---------------------------|
---------------------------|---------------------------|
------------------5--5--5--|--2--2-2-2--------3--2-----|
--3--3-3-3-----------------|------------------------5--|


  E  S S E  E  E  E  E  E     E  S S E  E  E  E  E  E   
---------------------------|---------------------------|
---------------------------|---------------------------|
------------------5--5--5--|--2--2-2-2--------3--2-----|
--3--3-3-3-----------------|------------------------5--|


  E  S S E  E  E  E  E  E     E  S S E  E  E  E  E  E   
---------------------------|---------------------------|
---------------------------|---------------------------|
------------------5--5--5--|--2--2-2-2--------3--2-----|
--3--3-3-3-----------------|------------------------5--|


  E  S S E  E  E  E  E  E     E  E  E  E  H         
---------------------------|-----------------------|
---------------------------|-----------------------|
------------------5--5--5--|--3-----3--------------|
--3--3-3-3-----------------|-----------------------|


  E  S S E  E  E  S S E  E     E  S S E  E  E  S S E  E   
----------------------------|----------------------------|
----------------------------|----------------------------|
---------------5--5-5-5--5--|---------------3--3-3-3--2--|
--3--3-3-3--3---------------|--0--0-0-0--0---------------|


            |--3--|               
  E  S S E  S  S  S E  S S E  E   
---------------------------------|
---------------------------------|
------------3h-5p-3-5--5-5-5--5--|
--3--3-3-3-----------------------|


  E  S S E  E  E  S S E  E     E  S S E  E  E  S S E  E   
----------------------------|----------------------------|
----------------------------|----------------------------|
---------------3--3-3-3-----|---------------5--5-5-5--5--|
--0--0-0-0--0------------2--|--3--3-3-3--3---------------|


  E  S S E  E  E  S S E  E     E  S S E  E  E  S S E  E   
----------------------------|----------------------------|
----------------------------|----------------------------|
---------------3--3-3-3--2--|---------------5--5-5-5--5--|
--0--0-0-0--0---------------|--3--3-3-3--3---------------|


  E  S S E  E  E  S S E  E     E  E  E  E  E  E  E  E   
----------------------------|--------------------------|
----------------------------|--------------------------|
---------------3--3-3-3--2--|-----------------5--5--5--|
--0--0-0-0--0---------------|--3--3--3-----------------|


  E  E  E  E  E  S S E  E     E  E  E  E  E  E  E  E   
---------------------------|--------------------------|
---------------------------|--------------------------|
--2--2--2--------3-3-2-----|-----------------5--5--5--|
------------------------5--|--3--3--3-----------------|


  E  E  E  E  E  S S E  E     E  E  E  E  E  E  E  E   
---------------------------|--------------------------|
---------------------------|--------------------------|
--2--2--2--------3-3-2-----|-----------------5--5--5--|
------------------------5--|--3--3--3-----------------|


  E  E  E  E  E  S S E  E     E  E  E  E  E  E  E  E   
---------------------------|--------------------------|
---------------------------|--------------------------|
--2--2--2--------3-3-2-----|-----------------5--5--5--|
------------------------5--|--3--3--3-----------------|


  E  E  E  E  E  S S E  E     E  E  E  E  E  E  E  E   
---------------------------|--------------------------|
---------------------------|--------------------------|
--2--2--2--------3-3-2-----|-----------------5--5--5--|
------------------------5--|--3--3--3-----------------|


  E  E  E  E  H           E  E  S S E  E  E  S S E   
-----------------------|----------------------------|
-----------------------|----------------------------|
--3-----3--------------|---------------5--5--5-5-5--|
-----------------------|--3--3--3-3-3---------------|


               |----3----|                                  
  E  E  S S E  Q    Q    Q       E  E  S S E  E  E  S S E   
------------------------------|----------------------------|
------------------------------|----------------------------|
--2--2--2-2-2--3----2---------|---------------5--5--5-5-5--|
-------------------------5----|--3--3--3-3-3---------------|


  E  E  S S E  E  E  S S E     E  E  S S E  E  E  S S E   
----------------------------|----------------------------|
----------------------------|----------------------------|
--3--3--3-3-3--5--5--5-5-5--|---------------5--5--5-5-5--|
----------------------------|--3--3--3-3-3---------------|


               |----3----|                                  
  E  E  S S E  Q    Q    Q       E  E  S S E  E  E  S S E   
------------------------------|----------------------------|
------------------------------|----------------------------|
--2--2--2-2-2--3----2---------|---------------5--5--5-5-5--|
-------------------------5----|--3--3--3-3-3---------------|


  E  H.           E     H         H          
---------------------|---------------------||
---------------------|---------------------||
--3------------------|---------------------||
---------------------|--3\-----------------||




Duration Legend
---------------
W - whole
H - half
Q - quarter
E - 8th
S - 16th
T - 32nd
X - 64th
. - note dotted
|-n-|  - n-tuplets


Tablature Legend
----------------
L - tied note
x - dead note
g - grace note
(n) - ghost note
> - accentuded note
NH - natural harmonic
AH - artificial harmonic
TH - tapped harmonic
SH - semi harmonic
PH - pitch harmonic
h - hammer on
p - pull off
b - bend
br - bendRelease
pb - preBend
pbr - preBendRelease
brb - bendReleaseBend
\n/ - tremolo bar dip
\n - tremolo bar dive
-/n - tremolo bar Release up
/n\ - tremolo bar inverted dip
/n - tremolo bar return
-\n - tremolo bar Release down
S - shift slide
s - legato slide
/ -  slide into from below or out of upwards
\ -  slide into from above or out of downwards
~ - vibrato
W - wide vibrato
tr - trill
TP - tremolo picking
T - tapping
S - slap
P - pop
< - fade in
^ - brush up
v - brush down

            
            
Suggest correction
Creating personal tab
Creating personal tab
You can edit any tab online and save it as your Personal.

You can edit, replace or remove any tab part or add personal notes – all changes will be seen only by you.

Personal tabs can be accessed anytime from any device, even offline.
Learn more »
Give kudos to tab author, rate the tab!
1 2 3 4 5
comments
print report bad tab
1 comment total.
+1 reply
m0h 10 Jul 11, 2011 03:14 PM

sounds good to me

guest
You may want to rate the tab now too:
select rating
Wanna post a correction for this tab? Suggest correction