Oops, an error
Loading. Please wait.

Heres To Life tab

version 1
version 1

Whole song

Interactive

6,768 views 3 this week
1 commentread comment
1 2 3 4 5
2 more votes to show rating
add to favorites
×
Save as Personal and add changes to this tab that will be seen only by you. Learn more ›
×
You can save this tab as Personal to edit and correct it or add notes. All changes will be seen only by you. Learn more »
launch autoscroll
font size
0
reset
how to read this tab
guitar tuner
edit
Autoscroll
slow
fast
+/-
esc
set tempo
stop
Well here goes this is my first tab and its about 100% correct. When playing live tom
around here and there with the G chord. Pretty easy to play listen to the song to place
of the chords and to get the timing down on the intro. Have any questions or comments 
check out my profile laxplyr1. Thank You and here goes.

TUNING: STANDARD

Intro (All of this is palm muted)

E-----------------------------------------------------------------------|
B-----------------------------------------------------------------------|
G-----------------------------------------------------------------------|
D-----------3-2---0-2------------------3----3-2-0-----------------------|
A-0-2-3-2-0-----3-----3-2-0--0-2-3-2-0------------3-0-------------------|
E-----------------------------------------------------------------------|

Horn break

   Am    C    F     G        G
E-------------1-----3--------3---|
B---1----1----1-----3--------3---|
G---2----0----2--------OR----4---|
D---2----2----3--------------5---|
A--------3----3-----2--------5---|
E-------------1-----3--------3---|

THEN
   Am    E
E----------|
B--1-------|
G--2-----1-|
D--2-----2-|
A--------2-|
E----------|

VERSE

   Am    E
E----------|
B--1-------|
G--2-----1-|
D--2-----2-|
A--------2-|
E----------|

DO THIS AGAIN WHEN THE HORN PART STARTS UP
   Am    C    F     G        G
E-------------1-----3--------3---|
B---1----1----1-----3--------3---|
G---2----0----2--------OR----4---|
D---2----2----3--------------5---|
A--------3----3-----2--------5---|
E-------------1-----3--------3---|

THEN (FOLLOW DRUMS ON THIS PART)

   Am    E
E----------|
B--1-------|
G--2-----1-|
D--2-----2-|
A--------2-|
E----------|

CHORUS

  Am    E     THEN FOR THE LAST LINE OF CHORUS DO     F      E
E----------                                        E--1--------|
B--1-------                                        B--1--------|
G--2-----1-                                        G--2------1-|
D--2-----2-                                        D--3------2-|
A--------2-                                        A--3------2-|
E----------                                        E--1--------|

THEN BACK TO THIS

  Am    C    F     G        G
E-------------1-----3--------3---|
B---1----1----1-----3--------3---|
G---2----0----2--------OR----4---|
D---2----2----3--------------5---|
A--------3----3-----2--------5---|
E-------------1-----3--------3---|


   Am    E
E----------|
B--1-------|
G--2-----1-|
D--2-----2-|
A--------2-|
E----------|

VERSE AGAIN

THEN CHORUS AND HORN BREAK

SLOW PART

   Am    C     G    Am
E--------------3--------|
B--1-----1-----3-----1--|
G--2-----0-----------2--|
D--2-----2-----------2--|
A--------3-----2--------|
E--------------3--------|

TOKAY THEN DOES THIS WEIRD MUTING LIKE THING DURING THE UP TEMPO PART

E-----
B-----
G-----
D-----
A-----
E--5--

BACK TO THIS
   Am    E
E----------|
B--1-------|
G--2-----1-|
D--2-----2-|
A--------2-|
E----------|

THEN
   Am    C    F     G        G
E-------------1-----3--------3---|
B---1----1----1-----3--------3---|
G---2----0----2--------OR----4---|
D---2----2----3--------------5---|
A--------3----3-----2--------5---|
E-------------1-----3--------3---|

VERSE YET AGAIN

THEN JUST GO CRAZY WITH

 Am    E
E----------|
B--1-------|
G--2-----1-|
D--2-----2-|
A--------2-|
E----------|

And that is it not to hard just gotta get used to the strumming pattern and whatnot.
fun and enjoy yourself this also works for the BOTAR version as well. But this was tabbed
out by yours truly cause all the other tabs just didn't have it right. Thank you and 
comments, concerns go ahead and message me.

            
            
Suggest correction
Creating personal tab
Creating personal tab
You can edit any tab online and save it as your Personal.

You can edit, replace or remove any tab part or add personal notes – all changes will be seen only by you.

Personal tabs can be accessed anytime from any device, even offline.
Learn more »
Give kudos to tab author, rate the tab!
1 2 3 4 5
comments
print report bad tab
1 comment total.
0 reply
jlcatlin021 14 Sep 11, 2017 11:29 PM, edited on September 12 2017, 03:32 am

beginning sounds a little odd

add some slides, some hammer-ons, and some pull-offs. then its probably good, cept for the 3-2-0-3-2-0
----------------3-0 part.

guest
You may want to rate the tab now too:
select rating
Wanna post a correction for this tab? Suggest correction