Oops, an error
Loading. Please wait.

If And When We Rise Again bass

3,038 views 3 this week
2 commentsread comments
1 2 3 4 5
x 3
add to favorites
×
Save as Personal and add changes to this tab that will be seen only by you. Learn more ›
×
You can save this tab as Personal to edit and correct it or add notes. All changes will be seen only by you. Learn more »
launch autoscroll
font size
0
reset
guitar tuner
edit
Autoscroll
slow
fast
+/-
esc
set tempo
stop
Author
Difficulty
                              Streetlight Manifesto
                            If and When We Rise Again

Increase volume/speed as you play.
		    Play until 1:00
G|--------------------------------|
D|--------------------------------|
A|--------------------------------|
E|-7--7--7--7-----3---3---2---2---|

G|---------|
D|-*-------|
A|----*--*-| end on first note at 1:20
E|7--3--2--|

Intro
G|--------------------------------|--------------------------------|
D|--------------------------------|--------------------------------|
A|--------------------------------|----------------777777770-------|
E|--------------------------------|--------------------------------|

G|--------------------------------|----------------------12--------|
D|--------------------------------|----------10-12-10-10-------9---|
A|0-------3---2-3-5---3---5---3-2-|-------/10----------------------|
E|--1-1-3-------------------------|3-0-0-1-------------------------|

G|-------------9-------------------|--------------------------------|
D|7--------7-----------------------|--5-----------------------------|
A|--8-8-10---------5---0---5-----5-|7---7-5-3-2-0---0-------0-------|
E|-----------------------------8---|--------------3-----0-----------|

Verse1
G|--------------------------------|------7-7-----------------------|
D|---3--3---3---3-----------------|----7-----7---------------------|
A|5-----------5---0---3-0---5-5-5-|7-7---------7-5-0-------0-0-0-3-|
E|--------------------------------|--------------------0-----------|

G|--------------------------------|--------------------------------|
D|--------------------------------|2-------2-----------------------|
A|5---0---5---7-5-3---3---0-------|----2-------3---0-------0-------|
E|----------------------------0---|--------------------0-----------|

Post-Verse1
G|--------------------------------|--------------------------------|
D|--------------------------------|--5-----------------------------|
A|0-------3---2-3-5---3---5-----5-|7---7-5-3-2-0---0-------0-------|
E|--1-1-3---------------------8---|--------------3-----0-----------|

Verse2
G|--------7-7---------------------|--------7-7-7-------------------|
D|------7-------------------------|------7-------------------------|
A|5-5-5-------8-7-0-0-3-3-0-0-3-5-|7-7-7-----------0-------0-003---|
E|--------------------------------|--------------------0-----------|

G|--------------------------------|--------------------------------|
D|--------------------------------|2---0---------------------------|
A|5---0---5---7-5-3---0-------2---|--------3---2---0-------0-------|
E|------------------------0-------|--------------------0-------5---|

Chorus1
G|--------------------------------|--------------------------------|
D|--------------------------------|2-------2---0-------------------|
A|5---0---5---3---0-------0---2---|----2-----------0-------0---3---|
E|--------------------0-----------|--------------------0-----------|

G|--------------------------------|--------------------------------|
D|--------------------------------|2-------2---0-------------------|
A|5---0---5---5-3-0-------0---2---|----2-----------0-------0%--0%--|
E|--------------------0-----------|--------------------0-----------|

Post-Chorus1
G|--------------------------------|----------------------12--------|
D|--------------------------------|----------10-12-10-10-------9---|
A|0-------3---2-3-5---3---5---3-2-|-------/10----------------------|
E|--1-1-3-------------------------|3-0-0-1-------------------------|

G|-------------9-------------------|--------------------------------|
D|7--------7-----------------------|--5-----------------------------|
A|--8-8-10---------5---0---5-----5-|7---7-5-3-2-0---0-------0-------|
E|-----------------------------8---|--------------3-----0-----------|

Verse3
G|--------------------------------|------7-------------------------|
D|3--3--3---------------7---------|----7---------------------------|
A|----------------0---------------|7-7-----7-5-7-5-0-0-----0-0-0-3-|
E|-------------------0------------|--------------------0-0---------|

G|--------------------------------|--------------------------------|
D|--------------------------------|2-------2-----------------------|
A|5---0---5---7-5-3---0-------2---|----2-------3-2-0-------0---0---|
E|------------------------0-------|--------------------0-----------|

Post-Verse3
G|--------------------------------|--------------------------------|
D|--------------------------------|--5-----------------------------|
A|0-------3---2-3-5---3---5-----5-|7---7-5-3-2-0---0-------0-------|
E|--1-1-3---------------------8---|--------------3-----0-----------|

Verse4
G|-----------------------------------|--------------------------------|
D|------p----------------------------|--------------------------------|
A|----15-12---------12-------12------|7-7-7-7-7-7-7-7-0-------0---0-3-|
E|---------------------12-------10---|--------------------0-----------|

G|--------------------------------|--------------------------------|
D|--------------------------------|2-------2-----------------------|
A|5---0---5---7-5-3---0-------2---|----2-------3-2-0-------0---5---|
E|------------------------0-------|--------------------0-----------|


Chorus2
G|--------------------------------|--------------------------------|
D|--------------------------------|2-------2---0-------------------|
A|5---0---5---3---0-------0---2---|----2-----------0-------0---3---|
E|--------------------0-----------|--------------------0-----------|

G|--------------------------------|--------------------------------|
D|--------------------------------|2-------2---0-------------------|
A|5---0---5---5-3-0-------0---2---|----2-----------0-------0%--0%--|
E|--------------------0-----------|--------------------0-----------|

Bridge
G|--------------------------------|--------------------------------|
D|-*---------------*-------*------|--------------------------------|
A|0---------------5-------0-------|0---------------7-------0%------|
E|--------------------------------|----3---1---0-------------------|

G|--------------------------------|------------------------5-------|
D|--------------------------------|--------------------------------|
A|0-------0-0-0-3-5---3---2---0---|----------------3---------------|
E|----0---------------------------|3---3---3-3---------------------|

G|--------------------------------|--------------------------------|
D|--------------------------------|--------------------------------|
A|--------------------------------|----------------0%0%----00000---|
E|0---------------1---------------|0%------------------------------|

G|----------------|
D|----------------|
A|0-------0-------|
E|----0-----------|

G|-----------------------------------|--------------------------------|
D|-----------------------------------|--------9-----------------------|
A|5-----5-5---5--/12-12---12-12------|------7-----7---0-------0%--0%--|
E|-----------------------------------|0-------------------0-----------|

Chorus3
G|--------------------------------|--------------------------------|
D|--------------------------------|2-------2---0-------------------|
A|5---0---5---3---0-------0---2---|----2-----------0-------0---3---|
E|--------------------0-----------|--------------------0-----------|

G|--------------------------------|--------------------------------|
D|--------------------------------|2-------2---0-------------------|
A|5---0---5---5-3-0-------0---2---|----2-----------0-------0%--0%--|
E|--------------------0-----------|--------------------0-----------|

   This tab isn't too hard to play its just hard to remember every part but if you play 
frequently you should get it down ok.

            
            
Suggest correction
Creating personal tab
Creating personal tab
You can edit any tab online and save it as your Personal.

You can edit, replace or remove any tab part or add personal notes – all changes will be seen only by you.

Personal tabs can be accessed anytime from any device, even offline.
Learn more »
Give kudos to tab author, rate the tab!
1 2 3 4 5
comments
print report bad tab
2 comments total.
0 reply
chrisjenks 2,712 Aug 25, 2008 12:13 PM

that first bit sounds 1/2 a step out to me. should it be:

G|-----------------|
D|-----------------|
A|-1-1-1-1---------|
E|---------2-2-1-1-|

0 reply
bonehade 72 Aug 25, 2008 01:24 PM

youre right i think my bass may have been a little out of tune when i tabbed the intro, but the rest of the song should be right

guest
You may want to rate the tab now too:
select rating
Wanna post a correction for this tab? Suggest correction