Oops, an error
Loading. Please wait.

Keasbey Nights bass

version 1
version 1

Whole song

6,152 views 3 this week
3 commentsread comments
1 2 3 4 5
2 more votes to show rating
add to favorites
×
Save as Personal and add changes to this tab that will be seen only by you. Learn more ›
×
You can save this tab as Personal to edit and correct it or add notes. All changes will be seen only by you. Learn more »
launch autoscroll
font size
0
reset
guitar tuner
edit
Autoscroll
slow
fast
+/-
esc
set tempo
stop
Author
Difficulty
[Streetlight Manifesto]
[Keasbey Nights]
[Keasbey Nights]

omg the bass in wicked! i think i'll post the gp for this one too
cuz its really confusing.. take note of the duration lengths. they'll
help you figure this out cuz it's kinda hard..especially if you've
been working off the other bass tab for this song, cuz mines completely
different. this song has SO many little tweaks and changes in the riffs,
pay close attention, i tabbed them all out here. lol if you hav a 
metronome play this at 123bps..n the durations with help you. this songs
hard hehe. but! now thers a right tab for it up..im slowly workin on the
whole album..here it is:
enjoy :)

G||-------|-------|-------|-------|-------|-------|
D||-------|-------|-------|-------|-------|-------|
A||-------|-------|-------|-------|-------|-------|
E||-------|-------|-------|-------|-------|-------|


  E  S  S E  E  E  E  E  E     E  S  S E  E  S  S E  E  E   
----------------------------|------------------------------|
----------2-----------------|----------2-------------2-----|
-----2h-4-------2--2--5--5--|-----2h-4-------5p-4-5--------|
--5----------0--------------|--5----------0----------------|


  E  S  S E  E  E  E  E  E     E  S  S E  E  E  E  E  E   
----------------------------|----------------------------|
----------2-----------------|----------2-----------------|
-----2h-4-------2--2--5--5--|-----2h-4-------5--5--------|
--5----------0--------------|--5----------0--------5-----|


  E  E  S S S S E  E  S  S  E     E  E  S S S S E  E  S S E   
-------------------------------|-----------------------------|
-------------------------------|----------9-7-6----7--6-6-7--|
--------4-5-7-4-7--7--7h-9p-7--|-----9--7-------5------------|
--5--5-------------------------|--7--------------------------|


  E  E  S S S S E  E  S  S  E     E  E  S S S S E  E  S S E   
-------------------------------|-----------------------------|
-------------------------------|----------9-7-6----7--6-6-7--|
--------4-5-7-4-7--7--7h-9p-7--|-----9--7-------5------------|
--5--5-------------------------|--7--------------------------|


  E  E  S  S  E  E  E  S  S  E     E  E  S  S  E  E  E  E  E   
--------------------------------|-----------------------------|
--------------------------------|--------------------7-----7--|
--------4h-5p-4--7--7-----------|-----------------5-----7-----|
--5--5-----------------7h-9p-7--|--7--7--5h-7p-5--------------|


  E  E  S  S  E  E  E  S  S  E     E  E  S  S  E  E  E  E  E   
--------------------------------|-----------------------------|
--------------------------------|--------------------7-----7--|
--------4h-5p-4--7--7-----------|-----------------5-----7-----|
--5--5-----------------7h-9p-7--|--7--7--5h-7p-5--------------|


  E  E  S S E  E  E  S  S  E     S S E  E  E  E  E  E  E   
------------------------------|------7--6-----------------|
------------------------------|------------9-----6--7--9--|
--7--7--7-7-7-----------------|---------------------------|
---------------0--0--7h-9p-7--|--0-0----------0-----------|


  H         H                       E  E  S  S E  E  E  S  S  E   
---------------------|-----------|-------------------------------|
--7\-----------------|-----------|-------------4-----------------|
---------------------|-----------|--------4h-5----7--7--7h-9p-7--|
---------------------|-----------|--5--5-------------------------|


  E  E  S  S  E  E  E  E  E     E  E  S S E  E  E  S S E   
-----------------------------|----------------------------|
--------------------------4--|----------------------------|
-----------------5--5--4-----|--7--7--7-7-7---------------|
--7--7--7p-5h-7--------------|---------------0--0--0-0-0--|


  E  E  S S E  E  E  S S E     E  E  E  S  S  E  E  E  S  S   
----------------------------|--------------------------------|
----------------------------|--------------------------------|
----------------------------|-----------0h-4h-5--5--5--------|
--0--0--0-0-0--0--0--0-0-0--|--5--5--5-----------------0h-4h-|


  E  E  E  S  S  E  E  E  E     E  E  E  S  S  E  E  E  S  S   
-----------------------------|--------------------------------|
-----------------------------|--------------------------------|
-----------0h-4h-7--5--4-----|-----------0h-4h-5--5--5--------|
--5--5--5-----------------7--|--5--5--5-----------------0h-4h-|


  E  E  E  S  S  E  E  E  E     E  E  E  E   E  S S E  E   
-----------------------------|----------------------------|
-----------------------------|--------7--7\---------------|
-----------0h-4h-7--5--4-----|----------------------5--4--|
--5--5--5-----------------7--|--5--5------------5-5-------|


  E  E  E  E   E  S S E  E     E  E  E  E   E  S S E  E   
----------------------------|----------------------------|
--------7--7\---------------|--------7--7\---------------|
----------------------5--4--|----------------------5--4--|
--5--5------------5-5-------|--5--5------------5-5-------|


  E  H.           E     E  E  S  S E  E  E  E  E   
---------------------|----------------------------|
---------------------|-------------2--------------|
--7------------------|--------2h-4----2--2--5--5--|
---------------------|--5--5----------------------|


  E  S  S E  E  S  S  E  E  E     E  S  S E  E  E  E  E  E   
-------------------------------|----------------------------|
----------2--------------------|----------2-----------------|
-----2h-4-------5p-4h-5--7--7--|-----2h-4-------2--2--5--5--|
--5----------0-----------------|--5----------0--------------|


  E  S  S E  E  E  E  E  E     E  E  S S S S E  E  S  S  E   
----------------------------|-------------------------------|
----------2-----------------|-------------------------------|
-----2h-4-------5--5--------|--------4-5-7-4-7--7--7h-9p-7--|
--5----------0--------5-----|--5--5-------------------------|


  E  E  S S S S E  E  S S E     E  E  S S S S E  E  S  S  E   
-----------------------------|-------------------------------|
----------9-7-6----7--6-6-7--|-------------------------------|
-----9--7-------5------------|--------4-5-7-4-7--7--7h-9p-7--|
--7--------------------------|--5--5-------------------------|


  E  E  S S S S E  E  S S E     E  E  S  S  E  E  E  S  S  E   
-----------------------------|--------------------------------|
----------9-7-6----7--6-6-7--|--------------------------------|
-----9--7-------5------------|--------4h-5p-4--7--7-----------|
--7--------------------------|--5--5-----------------7h-9p-7--|


  E  E  S  S  E  E  E  E  E     E  E  S  S  E  E  E  S  S  E   
-----------------------------|--------------------------------|
--------------------7-----7--|--------------------------------|
-----------------5-----7-----|--------4h-5p-4--7--7-----------|
--7--7--5h-7p-5--------------|--5--5-----------------7h-9p-7--|


  E  E  S  S  E  E  E  E  E     E  E  S S E  E  E  S  S  E   
-----------------------------|------------------------------|
--------------------7-----7--|------------------------------|
-----------------5-----7-----|--7--7--7-7-7-----------------|
--7--7--5h-7p-5--------------|---------------0--0--7h-9p-7--|


  S S E  E  E  E  E  E  E     H         H                     
------7--6-----------------|---------------------|-----------|
------------9-----6--7--9--|--7\-----------------|-----------|
---------------------------|---------------------|-----------|
--0-0----------0-----------|---------------------|-----------|


  E  E  S  S E  E  E  S  S  E     E  E  S  S  E  E  E  E  E   
-------------------------------|-----------------------------|
-------------4-----------------|--------------------------4--|
--------4h-5----7--7--7h-9p-7--|-----------------5--5--4-----|
--5--5-------------------------|--7--7--7p-5h-7--------------|


  E  E  S S E  E  E  S S E     E  E  S S E  E  E  S S E   
----------------------------|----------------------------|
----------------------------|----------------------------|
--7--7--7-7-7---------------|----------------------------|
---------------0--0--0-0-0--|--0--0--0-0-0--0--0--0-0-0--|


  E  E  E  S  S  E  E  E  S  S     E  E  E  S  S  E  E  E  E   
--------------------------------|-----------------------------|
--------------------------------|-----------------------------|
-----------0h-4h-5--5--5--------|-----------0h-4h-7--5--4-----|
--5--5--5-----------------0h-4h-|--5--5--5-----------------7--|


  E  E  E  S  S  E  E  E  S  S     E  E  E  S  S  E  E  E  E   
--------------------------------|-----------------------------|
--------------------------------|-----------------------------|
-----------0h-4h-5--5--5--------|-----------0h-4h-7--5--4-----|
--5--5--5-----------------0h-4h-|--5--5--5-----------------7--|


  E  E  E  E   E  S S E  E     E  E  E  E   E  S S E  E   
----------------------------|----------------------------|
--------7--7\---------------|--------7--7\---------------|
----------------------5--4--|----------------------5--4--|
--5--5------------5-5-------|--5--5------------5-5-------|


  E  E  E  E   E  S S E  E     E  Q.        W                 
----------------------------|------------|-------------------|
--------7--7\---------------|------------|-------------------|
----------------------5--4--|--7---------|-------------------|
--5--5------------5-5-------|------------|--5----------------|


  W                   Q     H.              W                 
-------------------|---------------------|-------------------|
-------------------|---------------------|-------------------|
-------------------|---------------------|-------------------|
--L----------------|--5\-----------------|-------------------|


  E  S  S E  E  E  E  E  E     E  S  S E  E  E  E  E  E   
----------------------------|----------------------------|
----------2-----------------|----------2-----------------|
-----2h-4-------2--2--5--5--|-----2h-4-------5--5--------|
--5----------0--------------|--5----------0--------0--4--|


  E  S  S E  E  E  S  S E  E     E  S  S E  E  E  E  E  E   
------------------------------|----------------------------|
----------2----------------2--|----------2-----------------|
-----2h-4-------2--2h-4-5-----|-----2h-4-------5--5--------|
--5----------0----------------|--5----------0--------5-----|


  E  E  E  E  E  S  S E  S  S    E  S  S  E  E  E  E  E  E   
------------------------------|-----------------------------|
-----2--2---------------------|-----2h-4p-2-----------------|
--------------2--2h-4-5--4h-5-|-----------------2--2--5--5--|
--5--------5------------------|--5-----------5--------------|


  E  S  S  E  E  E  S  S E  S  S    E  S  S  E  E  E  E  E  E         
---------------------------------|-----------------------------|-----|
-----2h-4p-2---------------------|-----2h-4p-2-----------------|-----|
-----------------2--2h-4-5--4h-5-|-----------------5--5--------|-----|
--5-----------5------------------|--5-----------5--------5-----|-----|


                                      H         E  E  E  E   
-----|-----|-----|-----|-----|-----|------------------------|
-----|-----|-----|-----|-----|-----|-----------/7--6--------|
-----|-----|-----|-----|-----|-----|------------------9--7--|
-----|-----|-----|-----|-----|-----|------------------------|


  E  E  E  S  S  E  E  E  S  S     E  E  E  S  S  E  E  S  S  E   
--------------------------------|--------------------------------|
--------------------------------|--------------------------------|
-----------0h-4h-5--5--5--------|-----------0h-4h-7--7--7h-9p-7--|
--5--5--5-----------------0h-4h-|--5--5--5-----------------------|


  E  E  E  S  S  E  E  E  S  S     E  E  E  S  S  E  E  S  S  E   
--------------------------------|--------------------------------|
--------------------------------|--------------------------------|
-----------0h-4h-5--5--5--------|-----------0h-4h-7--7--7h-9p-7--|
--5--5--5-----------------0h-4h-|--5--5--5-----------------------|


  E  E  E  Q    S S E  E     E  E  E  Q    S S E  E   
--------------------------|--------------------------|
--------7--7--------------|--------7--7--------------|
--------------------5--4--|--------------------5--4--|
--5--5----------5-5-------|--5--5----------5-5-------|


  E  E  E  Q    S S E  E     E  E  Q       W                 
--------------------------|-------------|-------------------|
--------7--7--------------|-------------|-------------------|
--------------------5--4--|--7----------|-------------------|
--5--5----------5-5-------|-------------|--5----------------|


  W                   W                   W                  
-------------------|-------------------|-------------------||
-------------------|-------------------|-------------------||
-------------------|-------------------|-------------------||
--L----------------|--L----------------|--L----------------||




Duration Legend
---------------
W - whole
H - half
Q - quarter
E - 8th
S - 16th
T - 32nd
X - 64th
. - note dotted
|-n-|  - n-tuplets


Tablature Legend
----------------
L - tied note
x - dead note
g - grace note
(n) - ghost note
> - accentuded note
NH - natural harmonic
AH - artificial harmonic
TH - tapped harmonic
SH - semi harmonic
PH - pitch harmonic
h - hammer on
p - pull off
b - bend
br - bendRelease
pb - preBend
pbr - preBendRelease
brb - bendReleaseBend
\n/ - tremolo bar dip
\n - tremolo bar dive
-/n - tremolo bar Release up
/n\ - tremolo bar inverted dip
/n - tremolo bar return
-\n - tremolo bar Release down
S - shift slide
s - legato slide
/ -  slide into from below or out of upwards
\ -  slide into from above or out of downwards
~ - vibrato
W - wide vibrato
tr - trill
TP - tremolo picking
T - tapping
S - slap
P - pop
< - fade in
^ - brush up
v - brush down

            
            
Suggest correction
Creating personal tab
Creating personal tab
You can edit any tab online and save it as your Personal.

You can edit, replace or remove any tab part or add personal notes – all changes will be seen only by you.

Personal tabs can be accessed anytime from any device, even offline.
Learn more »
Give kudos to tab author, rate the tab!
1 2 3 4 5
comments
print report bad tab
3 comments total.
0 reply
Mr. Thingy 260 Nov 26, 2008 09:40 AM

Dude, I have no clue what I'm looking at. I'm sure its accurate, but you could have at least labeled the different parts.

0 reply
guitardude828 10 Nov 09, 2010 07:53 PM

yes indeed tricky, and yet you are so sure this tab is very correct. It's almost as if this were being tabbed by Josh Ansley himself :D

0 reply
josh-josh-josh 11,936 Nov 10, 2010 12:38 AM

imo :D im a cocky bastard heheh

guest
You may want to rate the tab now too:
select rating
Wanna post a correction for this tab? Suggest correction