Oops, an error
Loading. Please wait.

Point Counterpoint solo bass

version 1
version 1

Solo

Interactive

8,880 views 3 this week
2 commentsread comments
1 2 3 4 5
x 9
add to favorites
×
Save as Personal and add changes to this tab that will be seen only by you. Learn more ›
×
You can save this tab as Personal to edit and correct it or add notes. All changes will be seen only by you. Learn more »
launch autoscroll
font size
0
reset
guitar tuner
edit
Autoscroll
slow
fast
+/-
esc
set tempo
stop
Difficulty
intermediate
Since i couldn't find the bass solo tabbed out for this song, I decided to tab it 
I'm 100% sure it's right. Hope you like it.

G- ------------14-------------------------------------|
D- ---11-12-14----14-12-11------14-12-11-9-11-12-11---|
A- 12------------------------12-----------------------|
E- ---------------------------------------------------|


G- ------------14-------------------------------------|
D- ---11-12-14----14-12-11---14-12-11-12----11--------|
A- 12------------------------------------14----12-----|
E- ---------------------------------------------------|

            
            
Suggest correction
Creating personal tab
Creating personal tab
You can edit any tab online and save it as your Personal.

You can edit, replace or remove any tab part or add personal notes – all changes will be seen only by you.

Personal tabs can be accessed anytime from any device, even offline.
Learn more »
comments
print report bad tab
2 comments total.
+2 reply
fuzzyfeet 30 Sep 30, 2007 06:38 AM

very nice, but the b you play on the a string on the 14th fret can also be played on the 9th fret of the g string

just seemed easier for me

but still, 5 stars!!

+1 reply
LedZepDefLep 123 Jan 31, 2009 06:54 AM

its all correct, except the two notes about six from the end
the last part is just
14-12-12-11----11---
------------14----12

he just kinda studders the two 12's

guest
Wanna post a correction for this tab? Suggest correction