Oops, an error
Loading. Please wait.

Supernothing chords

version 2
version 2

Whole song

Interactive

388 views 9 this week
no commentswrite comment
1 2 3 4 5
x 3
add to favorites
×
Save as Personal and add changes to this tab that will be seen only by you. Learn more ›
×
You can save this tab as Personal to edit and correct it or add notes. All changes will be seen only by you. Learn more »
launch autoscroll
font size
0
reset
transpose
0
reset
simplify chords
display chords
guitar tuner
edit
Autoscroll
slow
fast
+/-
esc
set tempo
stop
Strumming
There is no strumming pattern for this song yet. and get +5 IQ
**************************************************************************************************************
For G: 
I like to change it up between those three chords. Often I will
down strum G@1 and up strum G@2. On 'But idc, but idc' I play G@3

For Verse:
I like to play just the chords for the first line and then for the second line
'she acts like she...' I like to play my intro instead of standard open chords.

For Chorus:(Ima super Ima nothing...)
I like to play  F@1 during most of the song so I can play the F/Fadd9 like in the intro.
However during 'goin nowhere fast..' I like to play F@2 because I like to play G@3
for 'But idc...'
**************************************************************************************************************
[Chords]
      C       Cmaj7    Am  Am7    F: @1  @2   Fadd9   G: @1   @2   @3
e|----0-------0--------0---0---------1---1----3----------3----3----3--|
B|----1-------0--------1---1---------1---1----1----------0----3----3--|
G|----0-------0--------2---0---------2---2----2----------0----0----4--|
D|----2-------2--------2---2---------3---3----3----------0----0----5--|
A|----3-------3--------0---0-------------3---(3)---------2----2----5--|
E|-------------------------------------------------------3----3----3--|

[Intro]

   C      Cmaj7   Am     Am7     F   Fadd9  F     G
   v  v   v ^ v   v  v   v ^ v   v v ^      v     v ^
e|-0--0---0-0-0---0--0---0-0-0---1-1-3p1----1-----3-3-|
B|-1--1---0-1-0---1--1---1-1-1---1-1-1------1-----0-3-|
G|-0--0---0-0-0---2--1---0-2-0---2-2-2------2-----0-0-|
D|-2--2---2-2-2---2--2---2-2-2---3-3-3------3-----0-0-|   x2
A|-3--3---3-3-3---0--0---0-0-0--------------------2-2-|
E|------------------------------------------------3-3-|


[Verse]

C               Am           F                 G
He wakes up sad again and he wonders when the rain will end,
C                       Am                            F             G                 
She acts like she don't care cause to her it's just a game, that he plays,


[Chorus]

      C            Cmaj7          Am                    F
I'm a super, I'm a nothing, I'm a no one, goin' nowhere fast,
            G                    C
But I don't care, but I don't care,
      C            Cmaj7          Am                    F
I'm a super, I'm a nothing, I'm a no one, goin' nowhere fast,
            G
But I don't care, but I don't care.


[Verse]

C                                  Am
All the times he said he would she never really understood,
F                               G                              C
What he said, or what he meant, he won't forget what wasn't said,
                    Am                   F          G
He'll find himself alone standing in the rain,


[Chorus]

C     C            Cmaj7             Am                 F
I'm a super, I'm a nothing, I'm a no one, goin' nowhere fast,
            G                    C
But I don't care, but I don't care,
      C            Cmaj7             Am                 F
I'm a super, I'm a nothing, I'm a no one, goin' nowhere fast,
            G
But I don't care, but I don't care.


[Interlude]

   C      Cmaj7   Am     Am7     F   Fadd9  F     G
   v  v   v ^ v   v  v   v ^ v   v v ^      v     v ^
e|-0--0---0-0-0---0--0---0-0-0---1-1-3p1----1-----3-3-|
B|-1--1---0-1-0---1--1---1-1-1---1-1-1------1-----0-3-|
G|-0--0---0-0-0---2--1---0-2-0---2-2-2------2-----0-0-|
D|-2--2---2-2-2---2--2---2-2-2---3-3-3------3-----0-0-|   x2
A|-3--3---3-3-3---0--0---0-0-0--------------------2-2-|
E|------------------------------------------------3-3-|


[Verse]

C               Am           F                 G
He wakes up sad again and he wonders when the rain will end,
C                       Am                            F             G                 
She acts like she don't care cause to her it's just a game, that he plays,


[Chorus]

      C            Cmaj7          Am                    F
I'm a super, I'm a nothing, I'm a no one, goin' nowhere fast,
            G
But I don't care, but I don't care,
      C            Cmaj7          Am                    F
I'm a super, I'm a nothing, I'm a no one, goin' nowhere fast,
            G
But I don't care, but I don't care.


[Verse]

C                                  Am
All the times he said he would she never really understood,
F                               G                              C
What he said, or what he meant, he won't forget what wasn't said,
                    Am                   F          G
He'll find himself alone standing in the rain,


[Chorus]

C     C            Cmaj7             Am                 F
I'm a super, I'm a nothing, I'm a no one, goin' nowhere fast,
            G                    C
But I don't care, but I don't care,
      C            Cmaj7             Am                 F
I'm a super, I'm a nothing, I'm a no one, goin' nowhere fast,
            G                 G
But I don't care, but I don't care.

[Outro]

   C      Cmaj7   Am     Am7     F   Fadd9  F     G             C
   v  v   v ^ v   v  v   v ^ v   v v ^      v     v             v
e|-0--0---0-0-0---0--0---0-0-0---1-1-3p1----1-----3-------------0-|
B|-1--1---0-1-0---1--1---1-1-1---1-1-1------1-----0------0------1-|
G|-0--0---0-0-0---2--1---0-2-0---2-2-2------2-----0--0-2----0---0-|
D|-2--2---2-2-2---2--2---2-2-2---3-3-3------3-----0-------------2-|
A|-3--3---3-3-3---0--0---0-0-0--------------------2-------------3-|
E|------------------------------------------------3------------(3)|

            
            
Suggest correction
Creating personal tab
Creating personal tab
You can edit any tab online and save it as your Personal.

You can edit, replace or remove any tab part or add personal notes – all changes will be seen only by you.

Personal tabs can be accessed anytime from any device, even offline.
Learn more »
Give kudos to tab author, rate the tab!
1 2 3 4 5
comments
print report bad tab
guest
You may want to rate the tab now too:
select rating
Wanna post a correction for this tab? Suggest correction