Oops, an error
Loading. Please wait.

We Are The Few bass

1,600 views 1 this week
no commentswrite comment
1 2 3 4 5
x 3
add to favorites
×
Save as Personal and add changes to this tab that will be seen only by you. Learn more ›
×
You can save this tab as Personal to edit and correct it or add notes. All changes will be seen only by you. Learn more »
launch autoscroll
font size
0
reset
guitar tuner
edit
Autoscroll
slow
fast
+/-
esc
set tempo
stop
Author
   Deeeeeeeeeeeeeeeeeeeeee    aaaaaaaaaaaaarrrr!   Mr. Gepetto...because we
G|-=------=-----=-----=----|-=-------=------=------=------|
D|----------3-------------3|------------5-----------------|
A|------3-------------3----|------5-----------------------|
E|-1--------------1--------|-3--------------3-------------|

   miss you here in hell                        Well now I...
G|--=-----------=---------=---------=---------|
D|--------------------------------------------| First note played right when
A|-----------5--------------------------------| he says miss, second on here
E|--3----------------3------------------------| and third on hell.

1: know it's hard...              1:every single smile...
2:    you might try...            2:Crucified for...
G|-=-------=--5----=-------=------|-=--------=-------=-------=-------|
D|---------5---5------------------|----------7-----------------------|
A|-3--3-3------------------5---5--|------7-------7-----------3-----3-|
E|-------------------3--3-----3---|-5------------------1--1-----1----| X2

1: I don't care...                As Long...   
G|-=-------=-------=-------=-------|-=-------=-------=-------=--------|
D|---------------------------------|----------------------------------|
A|-3-3-3-3-------------------------|---------3-3-3-3-5-5-5-5----------|
E|---------3-3-3-3-5-5-5-5-0-0-0-0-|-1-1-1-1-----------------3-3-3-3--|

   9 times...              Wrong...
G|-=-----=-----=-----=----|=-------=-------=-------=--------|
D|------------------------|---------------------------------|
A|-3-3--------------------|--------3-3-3-3-5-5-5-5----------|
E|-------3-3---5-5---0-0--|1-1-1-1-----------------3-3-3-3--|

   Trying and...             Trying and...
G|-=------=-----=-----=----|-=-------=------=------=---------|
D|----------3-------------3|------------5---------------5----|
A|------3-------------3----|------5----------------5---------|
E|-1--------------1--------|-3-----------------3-------------|

   Go...                                 Everybody's....
G|-=--------=-------=--------=--------|--=-----=-----=-----=--|
D|-------------5-------------------5--|-----------------------|
A|------5--------------------5--------|-----------------------|
E|-3--------------------3-------------|--3--------------------|

    Chorus
G|-=-------=-------=-------=-------|-=-------=-------=-------=-------|
D|---------------------------------|---------------------------------|
A|-3-3-3-3-------------------------|-3-3-3-3-------------------------|
E|---------3-3-3-3-5-5-5-5-1-1-3-3-|---------3-3-3-3-5-5-5-5-1-1-3-3-| X2


G|-=-------=--5----=-------=------|-=--------=-------=-------=-------|
D|---------5---5------------------|----------7-----------------------|
A|-3--3-3------------------5---5--|------7-------7-----------3-----3-|
E|-------------------3--3-----3---|-5------------------1--1-----1----| X2


G|-=-------=-------=-------=-------|
D|---------------------------------|
A|-3-3-3-3-------------------------|
E|---------3-3-3-3-5-5-5-5-1-1-3-3-|


G|-=-------=--5----=-------=------|-=--------=-------=-------=-------|
D|---------5---5------------------|----------7-----------------------|
A|-3--3-3------------------5---5--|------7-------7-----------3-----3-|
E|-------------------3--3-----3---|-5------------------1--1-----1----| X3


G|-=-------=-------=-------=-------|
D|---------------------------------|
A|-3-3-3-3-------------------------|
E|---------3-3-3-3-5-5-5-5-1-1-1-3-|


G|-=-------=--5----=-------=------|-=--------=-------=-------=-------|
D|---------5---5------------------|----------7-----------------------|
A|-3--3-3------------------5---5--|------7-------7-----------3-----3-|
E|-------------------3--3-----3---|-5------------------1--1-----1----| 


G|-=-----=-----=-----=----|=-------=-------=-------=--------|
D|------------------------|---------------------------------|
A|-3-3--------------------|--------3-3-3-3-5-5-5-5----------|
E|-------3-3---5-5---1-1--|1-1-1-1-----------------3-3-3-3--| X2


 Trying and...             Trying and...
G|-=------=-----=-----=----|-=-------=------=------=---------|
D|----------3-------------3|------------5---------------5----|
A|------3-------------3----|------5----------------5---------|
E|-1--------------1--------|-3-----------------3-------------|

 Ignore...                               Everybody's....
G|-=--------=-------=--------=--------|--=-----=-----=-----=--|
D|-------------5-------------------5--|-----------------------|
A|------5--------------------5--------|-----------------------|
E|-3--------------------3-------------|--3--------------------|


 Chorus
G|-=-------=-------=-------=-------|-=-------=-------=-------=-------|
D|---------------------------------|---------------------------------|
A|-3-3-3-3-------------------------|-3-3-3-3-------------------------|
E|---------3-3-3-3-5-5-5-5-1-1-3-3-|---------3-3-3-3-5-5-5-5-1-1-3-3-| X2


G|-=-------=--5----=-------=------|-=--------=-------=-------=-------|
D|---------5---5------------------|----------7-----------------------|
A|-3--3-3------------------5---5--|------7-------7-----------3-----3-|
E|-------------------3--3-----3---|-5------------------1--1-----1----| X2


G|-=-------=-------=-------=-------|
D|---------------------------------|
A|-3-3-3-3-------------------------|
E|---------3-3-3-3-5-5-5-5-1-1-3-3-|



G|-=-------=--5----=-------=------|-=--------=-------=-------=-------|
D|---------5---5------------------|----------7-----------------------|
A|-3--3-3------------------5---5--|------7-------7-----------3-----3-|
E|-------------------3--3-----3---|-5------------------1--1-----1----|

   This has been...
G|-=----=----=----=-|
D|------------------|
A|-3----------------|
E|------------------|

       This has been...
G|-----=----12------=-----7---|-=---=----=-----5---|
D|-4/--10---=--10-----5---=-5-|-7---7------3---=-3-|
A|----------------------------|--------------------|
E|----------------------------|--------------------| X2

I  could've...
G|-=---=-----=---=---|-=---=----=----=----|
D|-10----10--9-----9-|-7-----7--5---------|
A|-------------------|--------------------|
E|-------------------|--------------------|

G|-----=----12------=-----7---|-=---=----=-----5---|
D|-4/--10---=--10-----5---=-5-|-7---7------3---=-3-|
A|----------------------------|--------------------|
E|----------------------------|--------------------| 

     And as the day...
G|-=---------|
D|-----------|
A|-3---------|
E|-----------|

          Another victim...         1st Ending             2nd Ending
G|-----=----12------=-----7---||-=---=----=-----5---||  |-=--=---=---=-|
D|-4/--10---=--10-----5---=-5-||-7---7------3---=-3-||  |-7--7---------|
A|----------------------------||--------------------||  |--------------|
E|----------------------------||--------------------||X2|--------5\----|

G|-=-------=-------=-------=-------|
D|---------------------------------|
A|-3-3-3-3-------------------------|
E|---------3-3-3-3-5-5-5-5-1-1-1-3-| X12

G|-=-------=----=-------=-|--=-------=------=--------=--|
D|------------------------|----------------------------|
A|-3-3-3-3-3--------------|----------------------------|
E|--------------3-3-3-3-3-|--5-5-5-5-5------1-1-1-1-1--|

G|-=-------=-------=-------=-------|
D|---------------------------------|
A|-3-3-3-3-------------------------|
E|---------3-3-3-3-5-5-5-5-1-1-1-3-| X2

G|-=-------=-------=-------10--10--10-10-5--|
D|------------------------------------------|
A|-3-3-3-3----------------------------------|
E|---------3-3-3-3-5-5-5-5------------------|

G|-=-------=-------=-------=-------|
D|---------------------------------|
A|-3-3-3-3-------------------------|
E|---------3-3-3-3-5-5-5-5-1-1-1-3-| X2

G|-=-------=--5----=-------=------|-=--------=-------=-------=-------|
D|---------5---5------------------|----------7-----------------------|
A|-3--3-3------------------5---5--|------7-------7-----------3-----3-|
E|-------------------3--3-----3---|-5------------------1--1-----1----| X2

G|-=-------=-------=-------=-------|
D|---------------------------------|
A|-3-3-3-3-------------------------|
E|---------3-3-3-3-5-5-5-5-1-1-3-3-|


G|-=-------=--5----=-------=------|-=--------=-------=-------=-------|
D|---------5---5------------------|----------7-----------------------|
A|-3--3-3------------------5---5--|------7-------7-----------3-----3-|
E|-------------------3--3-----3---|-5------------------1--1-----1----|

G|-=-------=-------=-------=-------|
D|---------------------------------|
A|-3-3-3-3-------------------------|
E|---------3-3-3-3-5-5-5-5-1-1-3-3-| 

G|-=-------=-------=-------10--10--10-10-5--|
D|------------------------------------------|
A|-3-3-3-3----------------------------------|
E|---------3-3-3-3-5-5-5-5------------------|

Key:
= : 1 beat of the measure (4 of them in each measure [most of them])
/ : Slide up
\ : Slide down

            
            
Suggest correction
Creating personal tab
Creating personal tab
You can edit any tab online and save it as your Personal.

You can edit, replace or remove any tab part or add personal notes – all changes will be seen only by you.

Personal tabs can be accessed anytime from any device, even offline.
Learn more »
Give kudos to tab author, rate the tab!
1 2 3 4 5
comments
print report bad tab
guest
You may want to rate the tab now too:
select rating
Wanna post a correction for this tab? Suggest correction