Oops, an error
Loading. Please wait.

We Will Fall Together bass

version 2
version 2

Whole song

Interactive

1,148 views 9 this week
1 commentread comment
1 2 3 4 5
2 more votes to show rating
add to favorites
×
Save as Personal and add changes to this tab that will be seen only by you. Learn more ›
×
You can save this tab as Personal to edit and correct it or add notes. All changes will be seen only by you. Learn more »
launch autoscroll
font size
0
reset
guitar tuner
edit
Autoscroll
slow
fast
+/-
esc
set tempo
stop
Author
Difficulty
intermediate
(/) Slide Up  (\) Slide Down  (h) Hammer On  (p) Pull Off  (b) Bend (r) Release (v) Vibrato


G|---|-------|---|-------------------|------------|-----------------|-----------------|
D|---|-------|---|-------------------|------------|-----------------|-----------------|
A|---|-2==---|-2-|-------------------|--------2---|-2-2-2-2-2-2-2-2-|-2-2-2-2-2-2-2-2-|
E|---|-----2-|---|-2-2-2-2---3-3-3-2-|-3--2-0---2-|-----------------|-----------------|


                                          Melody
|-----------------|-----------------|-------------2-3-|-4----------------|
|-4-5-4-2-4-5-4-2-|-4-5-4-2---------|-------2-4-5-----|---4--------------|
|-----------------|---------5-4-2---|-2-4-5-----------|-----55-4-2---2-5-|
|-----------------|---------------2-|-----------------|------------2-----|

|-----------2------|------------------|------------------|-----------------|
|-4-44-4-4-5-5-4-4-|-5-4-22---4-2-----|------------------|---------------2-|
|------------------|--------5-----5-4-|-2-4-55-4-2-----5-|-2-5---0-2-4-5---|
|------------------|------------------|------------2-0---|-----2-----------|

                                      Trombone solo
|-----------2------|-----------------|------------------|---4---4----------|
|-4-44-4-4-5-5-4-4-|-5-4-2---4-2-----|---5-44-2-4-2-----|---------42--42---|
|------------------|-------5-----5---|--------------5-4-|-2---2-----5---5--|
|------------------|---------------2-|-3----------------|------------------|
|------------------|-----------------|------------------|------------------|

|---------2-------|-------------|--------------------|-------------2---|
|-5-4-2-----5-4-2-|-------------|--------------------|---2-----4-5-----|
|-------5---------|-2---2-----2-|----------------2-4-|-5---5-4-------5-|
|-----------------|---2-----2---|-3-33-3-3-3-2-2-----|-----------------|

|----------2-------|-----------------|-------------------|-----------------|
|-5-55-5-5---5-4---|-------2-4---4---|-------------------|---2-------------|
|----------------4-|-----4-----------|-----------------4-|-5---5-4-5-----4-|
|------------------|-2-5-------2---2-|-3-33-333-2-22-5---|-----------2-5---|

|-----------------|------------------|---------------|---------------|---------------|
|-----------------|--------2-4-2-----|---------------|---------------|---------------|
|-----------------|-2-4-55-------5---|-2-2----2-2----|-2-2----2-2----|-2-2----2-2----|
|-3-33-33-5-55-55-|----------------2-|------2------2-|------2------2-|------2------2-|

               Verse
|-------------|-----4----------4-|-----4----------4-|---------------|----------------|
|-222222012-2-|---4----------4---|---4----------4---|---------------|-----------4----|
|-------------|-2-----2-2-2-2----|-2-----2-2-2-2----|---4-----------|---5-----4------|
|-------------|------------------|------------------|-2---2-3-3-2-2-|-3---3-2------2-|



|-------------|-------------|-------------|---------------|-----------------|
|-------------|-------------|-------------|-----------4---|-----5-------4---|
|-2-----2---4-|-2-----2---4-|---4---------|---5-----4-----|---5-------4-----|
|---2-5---2---|---2-5---2---|-2---2-33-22-|-3---3-2-----2-|-3-------2-------|

Pre Chorus
|---------------------------|--------------|-----------|-------------------|
|---------------------------|-----5------4-|-----------|-5-4-2-2-4-2-------|
|-22-2=---------------------|---5------4---|-2-4-5--22-|-------------5-4---|
|-------55-5=--33-3=--22-2=-|-3------2-----|-----------|-------------------|

|-----------------|---------|-----------------|-------------|-------------42---|
|-----------------|---5---7-|-----2-3-4-------|-------------|---2-4-----4----4-|
|-5-4-2-------4---|---------|---4-------4-----|-------------|-5-----5----------|
|-------5-2-5---2-|-3---5---|-2-----------3-2-|-3-3-222-2-2-|---------2--------|


|---------2-22-22-|-4---------------|-------------|-----4----7---|----6-----4--------|
|-5-5-5-5---------|---4-2-----------|-------------|---4-----7-7--|-------------------|
|-----------------|-------5-4-2-----|----5-----7--|-2-----5----5-|-------------------|
|-----------------|-------------5-2-|-3-----5---5-|--------------|-5----5-3---3-3----|

|-----4---7---|---6--------|-----4---7---|---6-----4-----|-----4---7---|---------------2|
|---4----7-7--|------------|---4----7-7--|---------------|---4----7-7--|-------------4--|
|-2-----5---5-|------------|-2-----5---5-|---------------|-2-----5---5-|----------------|
|-------------|-5---5-3----|-------------|-5---5-3---3-3-|-------------|-2-2-2-2-2-2----|
|-------------|------------|-------------|---------------|-------------|----------------|


|-3-|-4--|---|--------------|---------|-------------|-------------|-------------------|
|---|----|---|--------------|---------|-----------0-|-------------|-------------------|
|---|----|---|-2---5-2----0-|-2---0-2-|-2---0-2-----|-2---0-2-----|-----4-----5---4---|
|---|----|---|----2-----2---|---2-----|---2-----2---|---2-----0-1-|-2-2---2-3---2-----|

|-----------------|------------------|-----------------|-----------2-------|
|---------4-2-----|------------------|---------------2-|-4-44-4-4-5-5-4-4--|
|-----5-------5-4-|-2-4-55-4-2-----5-|-2-5---0-2-4-5---|-------------------|
|-3-3---3---------|------------2-0---|-----2-----------|-------------------|


|-----------------|------------------|------------------|-------------------|
|-5-4-2---4-2-----|--------2-4-2-----|------------------|---------------4---|
|-------5-----5---|-2-4-55-------5-4-|-2----------------|-------------------|
|---------------2-|------------------|---5-33-2-3-2-0-2-|-2-2-22-2-3-33---2-|


|------------------|-----22-3-4-2------|------------------|--------------------|
|------------------|---4----------44-2-|--------2-4-2---2-|-4-44-4-4-5-55-4-4--|
|--------5-------1-|-2-----------------|-5-22-5-------5---|--------------------|
|-3-2-00---2-3-5---|-------------------|------------------|--------------------|


|------------------|--------------|-------------------------|--------------|
|-5-4-22---4-2-----|-----5------2-|-------------------------|-----5-----2--|
|--------5-----5-4-|---5------2---|-22-2=-------------------|---5-----2----|
|------------------|-3------4-----|-------55-5=-33-3=-22-2=-|-3-----4------|

|----------|-----------------|-----------------|---------|------------------|
|----------|-5-4-2-2-4-2-----|-----------------|---5---7-|-----2-3-4--------|
|-2-4-5-22-|-------------5-4-|-5-4-2-------4---|---------|---4-------4------|
|----------|-----------------|-------5-2-5---2-|-3---5---|-2-----------3-2--|

|--------------|-------------42---|---------2-22-22-|-4---------------|------------|
|--------------|---2-4-----4----4-|-5-5-5-5---------|---4-2-----------|------------|
|--------------|-5-----5----------|-----------------|-------5-4-2-----|---5---7----|
|-3-3-2-22-2-2-|---------2--------|-----------------|-------------5-2-|-3---5--5---|


|-----4---7---|---6-----4-----|-----4---7---|---6------|-----4---7---|---6-----4------|
|---4----7-7--|---------------|---4----7-7--|----------|---4----7-7--|----------------|
|-2-----5---5-|---------------|-2-----5---5-|----------|-2-----5---5-|----------------|
|-------------|-5---5-3---3-3-|-------------|-5---5-3=-|-------------|-5---5-3---3-3--|


|-----4---7---|---------------2-|-3-|-4-|-------------|-----4------4-|-----4------4----|
|---4----7-7--|-------------4---|---|---|-------------|---4------4---|---4------4------|
|-2-----5---5-|-----------------|---|---|-------------|-2------2-----|-2------2--------|
|-------------|-2-2-2-2-2-2-----|---|---|-------------|--------------|-----------------|

|-----4-----4-|-----4-6-4-|-----4-----4-|-----4-----4-|-----4-----4-|-----4-6-4--|
|---4-----4---|---4-------|---4-----4---|---4-----4---|---4-----4---|---4--------|
|-2-----2-----|-2---------|-2-----2-----|-2-----2-----|-2-----2-----|-2----------|
|-------------|-----------|-------------|-------------|-------------|------------|

|-----4-----4-|-----4--------|-----4-------|-----4-6-4-|-----4--------|-----4--2---2-|
|---4-----4---|---4----4---4-|---4---------|---4-------|---4----------|---4------4---|
|-2-----2-----|-2--------2---|-2-----2-2---|-2---------|-2------2---0-|-2------------|
|-------------|--------------|-----------2-|-----------|----------2---|--------------|



                                Bass Solo
|-----4-----4-|-----4-------|-4---4-6---6-7---7-6-|-4---4-7---7-9---9-6--|
|---4-----4---|---4---------|---4-----4-----4-----|---4-----4-----7------|
|-2-----2-----|-2-----2h4-2-|---------------------|----------------------|
|-------------|-------------|---------------------|----------------------|

                        Nowww.....
|-4---4-6---6-4---4-6-|---------------------|-----------------|------------------|
|---4-----4-----2-----|---------------------|-----------------|-2-2-2-2-4-2------|
|---------------------|-2-2-2-2-2-2-0-1-2---|-2-2-2-2-5--4--5-|-------------5-4--|
|---------------------|---------------------|-----------------|------------------|

|-----------------|-----------------|------------|------------|------------------|
|-----------------|-----------------|----0-0---0-|-2--024--0--|------------------|
|-2-2-2-2-5-5-5-5-|-----------------|-2---2---2--|----------4-|-2-2-2-2-5-5-5-5--|
|-----------------|-3-3-3-3-2-2-2-2-|------------|------------|------------------|

|-----------------|------------------|------------------|-----------------|
|-----------------|------------------|----------2-------|-----444-222-----|
|-----------------|-----22-4-5-2-----|---2-44-5---4-----|-222---------555-|
|-3-3-3-3-5-5-3-2-|-3-5----------3-3-|-5------------5-2-|-----------------|

|---------------|-------------------|-2-22-------------|---------------|---------------|
|----444-222----|---------------2-2-|------5-54-44-2-2-|----444-222----|----444-222----|
|-222-------555-|------2-25-5-5-----|------------------|-222-------555-|-222-------555-|
|---------------|-3-33--------------|------------------|---------------|---------------|

|------------------|------------------|---------------|-----------|
|------------------|----------2-------|------2-4--4-5-|---4---4---|
|-----22-4-5-2-----|---2-44-5---4-----|---4-----------|-----------|
|-3-5----------3-3-|-5------------5-3-|-2-------------|-2---2---2-|

Chorus
|---|---|---|-----|---------7-|-----------|----------|---------------|-------------3-|
|---|---|---|-----|---4---7---|---------5-|---4--7-7-|---------------|-4-2---4-2-4---|
|---|---|---|-----|-2---5-----|---7---5---|-2---5----|-------------4-|-----4---------|
|---|---|---|---5-|-----------|-5---3-----|----------|-2-2--2-2--2---|---------------|

                                                                   Melody/Outro
|-------------|----------------|--------------|---|-------------|-------------|
|-------------|----------------|--------------|---|-----------0-|-------------|
|-2-2--2-2----|-2-2----2-2-----|-2-2---2-2----|-2-|-2--0-2------|-2--0-2------|
|-----2-----2-|-------2------2-|------2-----2-|---|---2-----2---|---2----0-1--|

|-------------------|-----------------|----|
|-------------------|---------4-2-----|----|
|-------------------|-----5-------5-4-|-2\-|
|-2-2-2-2---3-3-3-2-|-3-3---3---------|----|

            
            
Suggest correction
Creating personal tab
Creating personal tab
You can edit any tab online and save it as your Personal.

You can edit, replace or remove any tab part or add personal notes – all changes will be seen only by you.

Personal tabs can be accessed anytime from any device, even offline.
Learn more »
Give kudos to tab author, rate the tab!
1 2 3 4 5
comments
print report bad tab
1 comment total.
0 reply
demenrsiber 10 Sep 21, 2017 09:43 PM

Lemme just add a string to my bass halfway through

guest
You may want to rate the tab now too:
select rating
Wanna post a correction for this tab? Suggest correction