Oops, an error
Loading. Please wait.

Akhri Alvida tab

version 2
version 2

Whole song

by Strings
2,505 views 1 this week
no commentswrite comment
1 2 3 4 5
1 last vote to show rating
add to favorites
×
Save as Personal and add changes to this tab that will be seen only by you. Learn more ›
×
You can save this tab as Personal to edit and correct it or add notes. All changes will be seen only by you. Learn more »
launch autoscroll
font size
0
reset
how to read this tab
guitar tuner
edit
Autoscroll
slow
fast
+/-
esc
set tempo
stop
Author
Difficulty
Tabbed by rahul(rahul_grn@yahoo.com)

guys try this out,these chords sound brilliant!!

h=hammer


e|-3---3---3---2---2---2--3---3---3--2---2---2--|
b|--3---3---3---3---3---3--3---3---3--3---3---3-|
g|---0---0-------0---0------0---0------0---0----|
d|----------------------------------------------|
a|----------------------------------------------|
e|----------------------------------------------|

bass starts after this intro(this piece continues)


       G          D                 Em          Bm
   dhadkane    khamosh hai kuch     kehti       nahi
e|-3---3---3---2---2---2----------0---0---0-----2---2---2--|
b|--3---3---3---3---3---3----------0---0---0-----3---3---3-|
g|---0---0-------0---0--------------0---0---0-----4---4---4|
d|---------------------------------------------------------|
a|---------------------------------------------------------|
e|---------------------------------------------------------|

       C           Am              G
  ye   aakhri      alvida na       ho
e|---0---0---0-----0---0---0----3---3---3----|
b|----1---1---1-----1---1---1----3---3---3---|
g|-----0---0---------2---2--------0---0------|
d|-------------------------------------------|
a|-------------------------------------------|
e|-------------------------------------------|


continue playin the abov piece on guitar 1

listen to the song carefully for the timing of the following lead
e|----------------------------|   |----------------|  |-----------------|
b|-----10-12h-10--8-10h-8-----|   |----10-8-7-8----|  |--12-13-15-12-13-|
g|----------------------------|   |----------------|  |-----------------|
d|----------------------------|   |----------------|  |-----------------|
a|----------------------------|   |----------------|  |-----------------|
e|----------------------------|   |----------------|  |-----------------|


e|----------------------------|
b|-----10-12h-10--8-10h-8-----|
g|----------------------------|
d|----------------------------|
a|----------------------------|
e|----------------------------|


     Em      D        C              G
iss dard ko dil mein, dil mein rehne do

   Em           D           C             G
jo khauf hai aankhon se, aankhon se kehne do

     Em D         C           Am
dukh ki nadi chup chaap behne do

   C             Am            G
jo kehna hai tum dheere se keh do

    C       Am        G
yeh aakhari alvida na ho

distortin starts(try playing the same set of chords in a different sequence)


      G      D               Em     Bm
dhadkane khaamosh hain, kuch kehti nahi

    C       Am        G
yeh aakhari alvida na ho

Hope u guys must ve got an idea bout how to proceed 4 the rest of the song the chords 
the same in the next para..

sounds awe guys!!!

cheers..
rahul

            
            
Suggest correction
Creating personal tab
Creating personal tab
You can edit any tab online and save it as your Personal.

You can edit, replace or remove any tab part or add personal notes – all changes will be seen only by you.

Personal tabs can be accessed anytime from any device, even offline.
Learn more »
Give kudos to tab author, rate the tab!
1 2 3 4 5
comments
print report bad tab
guest
You may want to rate the tab now too:
select rating
Wanna post a correction for this tab? Suggest correction