Oops, an error
Loading. Please wait.

Population Control tab

612 views 1 this week
no commentswrite comment
1 2 3 4 5
3 more votes to show rating
add to favorites
×
Save as Personal and add changes to this tab that will be seen only by you. Learn more ›
×
You can save this tab as Personal to edit and correct it or add notes. All changes will be seen only by you. Learn more »
launch autoscroll
font size
0
reset
how to read this tab
guitar tuner
edit
Autoscroll
slow
fast
+/-
esc
set tempo
stop
Author
Difficulty
Band: Strung Out
Song: Population Control
Album: Another Day in Paradise

This tab is intended for www.ultimate-guitar.com

3/5/06

Key:
b: bend
v: vibrato
h: hammer-on
p: pull-off
a: artificial/pinch harmonic
m: palm muted
V: bring down after bending up

Guitar A: Rob Ramos
Guitar B: Jake Kiley

Strung Out tunes their guitars a full step down.

Intro:
Guitars: A & B
(0:27)
D|----------------------------------------------------------------------|
A|----------------------------------------------------------------------|
F|-------------5a-7-7--5-5--------------5a---------7--------------------|
C|-7-7-5m-5ah7----7-7--5-5--7-7-5m-5ah7----5-5--5--7--------------------|
G|-7-7------------5-5--3-3--7-7------------5-5--5--5--------------------|
D|-5-5----------------------5-5------------3-3--3-----------------------|

(0:32)
D|----------------------------------------------------------------------|
A|-----------------------------------------8-8--8--8--8-10--10--10--10-10|
F|-------------5a-7-7--5-5--------------5a-7-7--7--7--7-9---9---9---9--9|
C|-7-7-5m-5ah7----7-7--5-5--7-7-5m-5ah7----5-5--5--5--5-7---7---7---7--7|
G|-7-7------------5-5--3-3--7-7-----------------------------------------|
D|-5-5----------------------5-5-----------------------------------------|

Verse:
Guitars: A & B
(0:39)
D|----------------------------------------------------------------------|
A|----------------------------------------------------------------------|
F|---------------8-8--7--7--7-8-8--7--7---------------------------------|
C|-7------7--7-7-8-8--7--7--7-8-8--7--7-5-7------7--7-5a----------------|
G|-7-7777-7--7-7-6-6--5--5--5-6-6--5--5-5-7-7777-7--7-------------------|
D|-5-5555-5--5-5------------------------3-5-5555-5--5-------------------| x4
Mute:^--^ (for all parts like this)
Transfers to next part on the fourth time:^------------^

(0:59)
D|----------------------------------------------------------------------|
A|----------------------------------------------------------------------|
F|----------------------------------------------------------------------|
C|-7------7--7-3a--7------7--7-2a--7------------------------------------|
G|-7-7777-7--7-----7-7777-7--7-----7-7777-5ap3--------------------------|
D|-5-5555-5--5-----5-5555-5--5-----5-5555------5m-3m--------------------|

(1:02)
D|----------------------------------------------------------------------|
A|----------------------------------------------------------------------|
F|----------------------------------------------------------------------|
C|-7--7--7-7--5a--7--7--7-7--3a--7--7--7-7--2a--7-----------------------|
G|-7--7--7-7------7--7--7-7------7--7--7-7------7-7777-5ap3-------------|
D|-5--5--5-5------5--5--5-5------5--5--5-5------5-5555------5m-3m-------|

Guitar: A
(1:08)
D|----------------------------------------------------------------------|
A|----------------------------------------------------------------------|
F|-------------5a-7-7--5-5--------------5a------------------------------|
C|-7-7-5m-5ah7----7-7--5-5--7-7-5m-5ah7-----5-5--5--5--7----------------|
G|-7-7------------5-5--3-3--7-7-------------5-5--5--5--7----------------|
D|-5-5----------------------5-5-------------3-3--3--3--5----------------|

Guitar: B
(1:08)
D|----------------------------------------------------------------------|
A|------------------------------------------8-8--8-8--10----------------|
F|-------------5a-7-7--5-5--------------5a--7-7--7-7--9-----------------|
C|-7-7-5m-5ah7----7-7--5-5--7-7-5m-5ah7-----5-5--5-5--7-----------------|
G|-7-7------------5-5--3-3--7-7-----------------------------------------|
D|-5-5----------------------5-5-----------------------------------------|

Bridge:
Guitars: A & B
(1:13)
D|----------------------------------------------------------------------|
A|--------------------10-10-----8---------------------------------------|
F|---------8--8-8-----9--9--999-7---------------------------------------|
C|-7-7-----8--8-8-888-7--7--777-5---------------------------------------|
G|-7-7-777-6--6-6-666---------------------------------------------------|
D|-5-5-555--------------------------------------------------------------| 

(1:15)
D|----------------------------------------------------------------------|
A|----------------------------------------------------------------------|
F|---------8--8-8-------------------------------------------------------|
C|-7-7-----8--8-8-888--7-7-----7----------------------------------------|
G|-7-7-777-6--6-6-666--7-7-777-7----------------------------------------|
D|-5-5-555-------------5-5-555-5----------------------------------------|

(1:18)
D|----------------------------------------------------------------------|
A|--------------------10-10-----8---------------------------------------|
F|---------8--8-8-----9--9--999-7---------------------------------------|
C|-7-7-----8--8-8-888-7--7--777-5---------------------------------------|
G|-7-7-777-6--6-6-666---------------------------------------------------|
D|-5-5-555--------------------------------------------------------------| 

(1:21)
D|----------------------------------------------------------------------|
A|----------------------------------------------------------------------|
F|---------8--8-8-------------------------------------------------------|
C|-7-7-----8--8-8-888--7-7-----7----------------------------------------|
G|-7-7-777-6--6-6-666--7-7-777-7----------------------------------------|
D|-5-5-555-------------5-5-555-5----------------------------------------|

Guitar: A
(1:23)
D|----------------------------------------------------------------------|
A|------------------8-8-8--8-8-8----------------------------------------|
F|-10-10--10-10-10--7-7-7--7-7-7----------------------------------------|
C|-10-10--10-10-10--5-5-5--5-5-5--7-7-----------------------------------|
G|-8--8---8--8--8-----------------7-7-----------------------------------|
D|--------------------------------5-5-----------------------------------|

Guitar: B
(1:23)
D|----------------------------------------------------------------------|
A|----------------------------------------------------------------------|
F|----------------------------------------------------------------------|
C|-3-3--3-3-3--5-5-5--5-5-5--7-7----------------------------------------|
G|-3-3--3-3-3--5-5-5--5-5-5--7-7----------------------------------------|
D|-1-1--1-1-1--3-3-3--3-3-3--5-5----------------------------------------|

Guitar: A
(1:29)
D|----------------------------------------------------------------------|
A|------------------8-8-8--8-8-8----------------------------------------|
F|-10-10--10-10-10--7-7-7--7-7-7----------------------------------------|
C|-10-10--10-10-10--5-5-5--5-5-5--7--7-7--7-7--7--7--7------------------|
G|-8--8---8--8--8-----------------7--7-7--7-7--7--7--7------------------|
D|--------------------------------5--5-5--5-5--5--5--5------------------|

Guitar: B
(1:29)
D|----------------------------------------------------------------------|
A|----------------------------------------------------------------------|
F|----------------------------------------------------------------------|
C|-3-3--3-3-3--5-5-5--5-5-5--7--7-7--7-7--7--7--7-----------------------|
G|-3-3--3-3-3--5-5-5--5-5-5--7--7-7--7-7--7--7--7-----------------------|
D|-1-1--1-1-1--3-3-3--3-3-3--5--5-5--5-5--5--5--5-----------------------|

Guitar: A
(1:34)
D|----------------------------------------------------------------------|
A|------------------8-8-8--8-8-8----------------------------------------|
F|-10-10--10-10-10--7-7-7--7-7-7--5-5-5--5-5-5--2-2-2--2-2-2------------|
C|-10-10--10-10-10--5-5-5--5-5-5--5-5-5--5-5-5--2-2-2--2-2-2------------|
G|-8--8---8--8--8-----------------3-3-3--3-3-3--0-0-0--0-0-0------------|
D|----------------------------------------------------------------------|

Guitar: B
(1:34)
D|----------------------------------------------------------------------|
A|----------------------------------------------------------------------|
F|---------------------------5-5-5--5-5-5--2-2-2--2-2-2-----------------|
C|-3-3--3-3-3--5-5-5--5-5-5--5-5-5--5-5-5--2-2-2--2-2-2-----------------|
G|-3-3--3-3-3--5-5-5--5-5-5--3-3-3--3-3-3--0-0-0--0-0-0-----------------|
D|-1-1--1-1-1--3-3-3--3-3-3---------------------------------------------|

Guitar: A
(1:38)
D|----------------------------------------------------------------------|
A|------------------8-8-------------------------------------------------|
F|-10-10--10-10-10--7-7-------------------------------------------------|
C|-10-10--10-10-10--5-5-------------------------------------------------|
G|-8--8---8--8--8-------------------------------------------------------|
D|----------------------------------------------------------------------|

Guitar: B
(1:38)
D|----------------------------------------------------------------------|
A|----------------------------------------------------------------------|
F|----------------------------------------------------------------------|
C|-3-3-3--3-3-3--7-7----------------------------------------------------|
G|-3-3-3--3-3-3--7-7----------------------------------------------------|
D|-1-1-1--1-1-1--5-5----------------------------------------------------|


Solo:
Guitar: A
(1:41)
D|---------5-8-5---------------10--10b--10bv----------------------------|
A|---------------8-5----------------------------------------------------|
F|-7b--7ab-----------7bVp5----------------------------------------------|
C|-------------------------7--------------------------------------------|
G|----------------------------------------------------------------------|
D|----------------------------------------------------------------------|

(1:45)
D|-10-10-10h15p10-------------------------------------------------------|
A|--------------------12h13p12------------------------------------------|
F|-----------------14----------14-12-14--12-----------------------------|
C|------------------------------------------14--------------------------|
G|----------------------------------------------------------------------|
D|----------------------------------------------------------------------|

(1:47)
D|----------------------------------------------------------------------|
A|-------------------------------------15bv-----------------------------|
F|------------------------0-12h14p12-------------------------------------|
C|-----------------12m-14m----------14----------------------------------|
G|---------12m-14m------------------------------------------------------|
D|-12m-15m--------------------------------------------------------------|

Rhythm under solo:
Guitar: B
(1:41)
D|----------------------------------------------------------------------|
A|----------------------------------------------------------------------|
F|---------------------------7-7-7--7-7-7--9-9-9--9-9-9-----------------|
C|-7-7--7-7-7--5-5-5--5-5-5--7-7-7--7-7-7--9-9-9--9-9-9-----------------|
G|-7-7--7-7-7--5-5-5--5-5-5--5-5-5--5-5-5--7-7-7--7-7-7-----------------|
D|-5-5--5-5-5--3-3-3--3-3-3---------------------------------------------| x2

Outro:
Guitars: A & B
(1:50)
D|----------------------------------------------------------------------|
A|----------------------------------------------------------------------|
F|---------------------------7-7-7--7-7-7--9-9-9--9-9-9-----------------|
C|-7-7--7-7-7--5-5-5--5-5-5--7-7-7--7-7-7--9-9-9--9-9-9-----------------|
G|-7-7--7-7-7--5-5-5--5-5-5--5-5-5--5-5-5--7-7-7--7-7-7-----------------|
D|-5-5--5-5-5--3-3-3--3-3-3---------------------------------------------| x3

(2:04)
D|----------------------------------------------------------------------|
A|----------------------------------------------------------------------|
F|---------------------------7-7-7--7-7-7--9-9--9----------8--8---------|
C|-7-7--7-7-7--5-5-5--5-5-5--7-7-7--7-7-7--9-9--9--7-------8--8---------|
G|-7-7--7-7-7--5-5-5--5-5-5--5-5-5--5-5-5--7-7--7--7-77777-6--6---------|
D|-5-5--5-5-5--3-3-3--3-3-3------------------------5-55555--------------|

A classic.

Questions, suggestions, comments?
Drop me a line at: Cyco00Vision@hotmail.com

            
            
Suggest correction
Creating personal tab
Creating personal tab
You can edit any tab online and save it as your Personal.

You can edit, replace or remove any tab part or add personal notes – all changes will be seen only by you.

Personal tabs can be accessed anytime from any device, even offline.
Learn more »
Give kudos to tab author, rate the tab!
1 2 3 4 5
comments
print report bad tab
guest
You may want to rate the tab now too:
select rating
Wanna post a correction for this tab? Suggest correction