Oops, an error
Loading. Please wait.

Winter Wonderland bass

version 1
version 1

Whole song

Interactive

by Stryper
4,164 views 18 this week
1 commentread comment
1 2 3 4 5
3 more votes to show rating
add to favorites
×
Save as Personal and add changes to this tab that will be seen only by you. Learn more ›
×
You can save this tab as Personal to edit and correct it or add notes. All changes will be seen only by you. Learn more »
launch autoscroll
font size
0
reset
guitar tuner
edit
Autoscroll
slow
fast
+/-
esc
set tempo
stop
-------------------------------------------------------------------------------
			     STRYPER - Winter Wonderland
-------------------------------------------------------------------------------

Tabbed By : Isaias Garcia (TexasFury)

Tuning: 1/2 step down




      W                   W                   W                   W                 
F#||-------------------|-------------------|-------------------|-------------------|
C#||-------------------|-------------------|-------------------|-------------------|
G#||-------------------|-------------------|-------------------|-------------------|
D#||-------------------|-------------------|-------------------|-------------------|


  W                   W                   W                   W                   W                 
-------------------|-------------------|-------------------|-------------------|-------------------|
-------------------|-------------------|-------------------|-------------------|-------------------|
-------------------|-------------------|-------------------|-------------------|-------------------|
-------------------|-------------------|-------------------|-------------------|-------------------|


  W                   W                   W                   W                   W                 
-------------------|-------------------|-------------------|-------------------|-------------------|
-------------------|-------------------|-------------------|-------------------|-------------------|
-------------------|-------------------|-------------------|-------------------|-------------------|
-------------------|-------------------|-------------------|-------------------|-------------------|


  W                   W                   W                   W                   W                 
-------------------|-------------------|-------------------|-------------------|-------------------|
-------------------|-------------------|-------------------|-------------------|-------------------|
-------------------|-------------------|-------------------|-------------------|-------------------|
-------------------|-------------------|-------------------|-------------------|-------------------|


                                                                            |--3-|   
  W                   W                   W                   H        Q    Q    E   
-------------------|-------------------|-------------------|------------------------|
-------------------|-------------------|-------------------|------------------------|
-------------------|-------------------|-------------------|------------------------|
-------------------|-------------------|-------------------|---------------------4--|


  E  E  E  E  E  E  E  E     E  E  E  E  E  E  E  E     E  E  E  E  E  E  E  E   
--------------------------|--------------------------|--------------------------|
--------------------------|--------------------------|--------------------------|
--------------------------|--------------------------|--------------------------|
--5--5--5--5--5--5--5--5--|--5--5--5--5--5--5--5--4--|--5--5--5--5--5--5--5--5--|


                                                                          |--3--|   
  E  E  E  E  E  E  E  E     E  E  E  E  E  E  E  E     E  E  E  E  E  E  E  E  E   
--------------------------|--------------------------|-----------------------------|
--------------------------|--------------------------|-----------------------------|
--------------------------|--------------------------|--------------------4--5--6--|
--5--5--5--5--5--5--5--4--|--5--5--5--5--5--5--5--5--|--5--5--5--5--5--5-----------|


                                               |--3--|                 |--3--|         
  E  E  E  E  E  E  E  E     E  E  E  E  E  E  E  E  E     E  E  E  E  E  E  E  E  E   
--------------------------|-----------------------------|-----------------------------|
--------------------------|-----------------------------|-----------------------------|
--7-----------------------|--------------------4--5--6--|--7-----------------------6--|
-----0--0--0--0--0--0--0--|--0--0--0--0--0--0-----------|-----0--0--0--0--0--0--0-----|


              |--3--|                                                       
  E  E  E  E  E  E  E  E  E     Q    Q    Q    Q       Q    Q    Q    Q     
-----------------------------|----------------------|----------------------|
-----------------------------|----------------------|----------------------|
--7-----------------------6--|--7----5----4----2----|----------------------|
-----0--0--0--0--0--0--0-----|----------------------|--5----2----3----4----|


                                               |--3--|                 |--3--|         
  E  E  E  E  E  E  E  E     E  E  E  E  E  E  E  E  E     E  E  E  E  E  E  E  E  E   
--------------------------|-----------------------------|-----------------------------|
--------------------------|-----------------------------|-----------------------------|
--------------------------|--------------------4--5--6--|--7--------------------------|
--5--5--5--5--5--5--5--5--|--5--5--5--5--5--5-----------|-----0--0--0--0--0--0--0--0--|


                    |--3--|                 |--3--|                       |--3--|         
  E  E  E  E  E  E  E  E  E     E  E  E  E  E  E  E  E  E     E  E  E  E  E  E  E  E  E   
-----------------------------|-----------------------------|-----------------------------|
-----------------------------|-----------------------------|-----------------------------|
--------------------4--5--6--|--7-----------------------6--|--7-----------------------6--|
--0--0--0--0--0--0-----------|-----0--0--0--0--0--0--0-----|-----0--0--0--0--0--0--0-----|


  Q    Q    Q    Q       Q    Q    Q    Q       E  E  E  E  E  E  E  E   
----------------------|----------------------|--------------------------|
----------------------|----------------------|--------------------------|
--7----5----4----2----|------------2----4----|--5--5--5--5--------------|
----------------------|--5----5--------------|--------------3--3--3--3--|


        |--3--|        |--3--|                                           |--3--|        
  E  E  E  E  E  E  E  E  E  E     E  E  E  E  E  E  E  E     E  E  Q    E  E  E  Q     
--------7--5-----------7--5-----|--------------------------|----------------7----------|
--------------7--------------7--|--------------------------|---------------------------|
--5--5-----------5--5-----------|--5--5--5--5--------------|--5--5--5----5-----5--6----|
--------------------------------|--------------3--3--3--3--|---------------------------|


                   |--3--|           |--3--|        |--3--|                            
  E  E  Q    E  E  E  E  E     E  E  E  E  E  E  E  E  E  E     E  E  Q    E  E  Q     
--------9-------------------|--------9--7-----------9-----9--|------------------------|
-------------------7--5-----|--------------9-----------9-----|------------------------|
--7--7-------------------7--|--7--7-----------7--7-----------|--7--7--7---------------|
-------------5--5-----------|--------------------------------|-------------7--7--7----|


                                           |--3--|                       |--3--|   
  Q    Q    Q    Q       E  E  E  E  E  E  E  E  E     E  E  E  E  E  E  E  E  E   
----------------------|-----------------------------|-----------------------------|
----------------------|-----------------------------|-----------------------------|
--7----6----5----3----|-----------------------------|--------------------4--5--6--|
----------------------|--5--5--5--5--5--5--2--3--4--|--5--5--5--5--5--5-----------|


                                               |--3--|                 |--3--|         
  E  E  E  E  E  E  E  E     E  E  E  E  E  E  E  E  E     E  E  E  E  E  E  E  E  E   
--------------------------|-----------------------------|-----------------------------|
--------------------------|-----------------------------|-----------------------------|
--7-----------------------|--------------------4--5--6--|--7-----------------------6--|
-----0--0--0--0--0--0--0--|--0--0--0--0--0--0-----------|-----0--0--0--0--0--0--0-----|


              |--3--|                                                       
  E  E  E  E  E  E  E  E  E     Q    Q    Q    Q       Q    Q    Q    Q     
-----------------------------|----------------------|----------------------|
-----------------------------|----------------------|----------------------|
--7-----------------------6--|--7----5----4----2----|----------------------|
-----0--0--0--0--0--0--0-----|----------------------|--5----2----3----4----|


                                               |--3--|                              
  E  E  E  E  E  E  E  E     E  E  E  E  E  E  E  E  E     E  E  E  E  E  E  E  E   
--------------------------|-----------------------------|--------------------------|
--------------------------|-----------------------------|--------------------------|
--------------------------|--------------------4--5--6--|--7-----------------------|
--5--5--5--5--5--5--5--5--|--5--5--5--5--5--5-----------|-----0--0--0--0--0--0--0--|


  E  E  E  E  E  E  E  E     E  E  E  E  E  E  E  E     E  E  E  E  E  E  E  E   
--------------------------|--------------------------|--------------------------|
--------------------------|--------------------------|--------------------------|
--------------------------|--------------------------|--------------------------|
--0--0--0--0--0--0--0--0--|--0--0--0--0--0--0--0--0--|--0--0--0--0--0--0--0--0--|


                                                          |--3--|        |--3--|   
  E  E  E  E  E  E  E  E     Q    Q    Q    Q       E  E  E  E  E  E  E  E  E  E   
--------------------------|----------------------|--------------------------------|
--------------------------|----------------------|--------7--5-----------7--5-----|
--------------------------|----------------------|--------------7--------------7--|
--0--0--0--0--0--0--0--0--|--5----2----3----4----|--5--5-----------5--5-----------|


        |--3--|        |--3--|           |--3--|        |--3--|           |--3--|        |--3--|   
  E  E  E  E  E  E  E  E  E  E     E  E  E  E  E  E  E  E  E  E     E  E  E  E  E  E  E  E  E  E   
--------------------------------|--------9--7-----------9--7-----|--------9--7-----------9--7-----|
--------7--5--------------------|--------------9--------------9--|--------------9--------------9--|
--------------7--------4--5--6--|--7--7-----------7--7-----------|--7--7-----------7--7-----------|
--5--5-----------5--5-----------|--------------------------------|--------------------------------|


        |--3--|        |--3--|           |--3--|                                     
  E  E  E  E  E  E  E  E  E  E     E  E  E  E  E  E  E  Q       Q    Q    Q    Q     
--------9--7-----------9--7-----|--------9--7----------------|----------------------|
--------------9--------------9--|--------------9-------------|----------------------|
--7--7-----------7--7-----------|--7--7-----------7--7--7----|--7----5----4----2----|
--------------------------------|----------------------------|----------------------|


                               |--3--|                       |--3--|        |--3--|   
  Q    Q    Q    Q       E  E  E  E  E  E  E  E  E     E  E  E  E  E  E  E  E  E  E   
----------------------|--------7--5-----------------|--------7--5-----------7--5-----|
----------------------|--------------7--------------|--------------7--------------7--|
------------2----4----|--5--5-----------------------|--5--5-----------5--5-----------|
--5----5--------------|-----------------3--3--3--3--|--------------------------------|


                                   |--3--|                                |--3--|   
  E  E  E  E  E  E  E  E     E  E  E  E  E  Q    Q       E  E  Q    E  E  E  E  E   
--------------------------|-----------7---------------|--------9-------------------|
--------------------------|---------------------------|-------------------7--5-----|
--5--5--5--5--------------|--5--5--5-----5--5----6----|--7--7-------------------7--|
--------------3--3--3--3--|---------------------------|-------------5--5-----------|


        |--3--|        |--3--|                                                   
  E  E  E  E  E  E  E  E  E  E     E  E  Q    E  E  Q       Q    Q    Q    Q     
--------9--7-----------9-----9--|------------------------|----------------------|
--------------9-----------9-----|------------------------|----------------------|
--7--7-----------7--7-----------|--7--7--7---------------|--7----6----5----3----|
--------------------------------|-------------7--7--7----|----------------------|


                                               |--3--|                              
  E  E  E  E  E  E  E  E     E  E  E  E  E  E  E  E  E     E  E  E  E  E  E  E  E   
--------------------------|-----------------------------|--------------------------|
--------------------------|-----------------------------|--------------------------|
--------------------------|--------------------4--5--6--|--7-----------------------|
--5--5--5--5--5--5--5--5--|--5--5--5--5--5--5-----------|-----0--0--0--0--0--0--0--|


              |--3--|                       |--3--|                       |--3--|         
  E  E  E  E  E  E  E  E  E     E  E  E  E  E  E  E  E  E     E  E  E  E  E  E  E  E  E   
-----------------------------|-----------------------------|-----------------------------|
-----------------------------|-----------------------------|-----------------------------|
-----------------------------|-----------------------------|-----------------------------|
--0--0--0--0--0--0--0--0--0--|--0--0--0--0--0--0--0--0--0--|--0--0--0--0--0--0--0--0--0--|


                                                            |--3--|         
  Q    Q    Q    Q       Q    Q    Q    Q       E  E  E  E  E  E  E  E  E   
----------------------|----------------------|-----------------------------|
----------------------|----------------------|-----------------------------|
--7----5----4----2----|----------------------|-----------------------------|
----------------------|--5----2----3----4----|--0--0--0--0--0--0--0--0--0--|


              |--3--|                                  |--3--|  |--3--|  |--3--|  |--3--|   
  E  E  E  E  E  E  E  E  E     Q    Q    Q    Q       E  E  E  E  E  E  E  E  E  E  E  E   
-----------------------------|----------------------|--------------------------------------|
-----------------------------|----------------------|--------------------------------------|
-----------------------------|--7----5----4----2----|-----------------------------4--5--6--|
--0--0--0--0--0--0--0--0--0--|----------------------|--5--5--5--5--5--5--5--5--5-----------|


                                     |-3|  |3|  |--3--|                              
  E  E  H        E  E     E  E  Q    E  S  S E  E  E  E     E  E  E  E  E  E  E  E   
-----------------------|---------------------------------|--------------------------|
-----------------------|-------------7--5h-6-------------|--------------------------|
--7-----------------6--|--7------------------7--5--------|-----7--L-----7--7--6-----|
-----0--L--------L-----|-----0--L------------------7--5--|--0--------5-----------5--|


                                |--3--|                                                            
  Q    E  E  Q    Q       E  E  E  E  E  E  E  E  E     Q     E   E  H           W                 
-----------------------|-----------------------------|--------5s--6--L--------|--L----------------|
-----------------------|-----------------------------|--------4s--5--L--------|--L----------------|
--5----L--5--4----2----|--0--0--0--2--4--5--5--5--6--|--7\--------------------|--0----------------|
-----------------------|-----------------------------|------------------------|-------------------|


                                             |-3|               
  Q                                          E  Q    H          
--L-----------------------------------------------------------||
--L-----------------------------------------------------------||
--L------------------------------------------0--0-------------||
--------------------------------------------------------------||




Duration Legend
---------------
W - whole
H - half
Q - quarter
E - 8th
S - 16th
T - 32nd
X - 64th
. - note dotted
|-n-|  - n-tuplets


Tablature Legend
----------------
L - tied note
x - dead note
g - grace note
(n) - ghost note
> - accentuded note
NH - natural harmonic
AH - artificial harmonic
TH - tapped harmonic
SH - semi harmonic
PH - pitch harmonic
h - hammer on
p - pull off
b - bend
br - bendRelease
pb - preBend
pbr - preBendRelease
brb - bendReleaseBend
\n/ - tremolo bar dip
\n - tremolo bar dive
-/n - tremolo bar Release up
/n\ - tremolo bar inverted dip
/n - tremolo bar return
-\n - tremolo bar Release down
S - shift slide
s - legato slide
/ -  slide into from below or out of upwards
\ -  slide into from above or out of downwards
~ - vibrato
W - wide vibrato
tr - trill
TP - tremolo picking
T - tapping
S - slap
P - pop
< - fade in
^ - brush up
v - brush down

            
            
Suggest correction
Creating personal tab
Creating personal tab
You can edit any tab online and save it as your Personal.

You can edit, replace or remove any tab part or add personal notes – all changes will be seen only by you.

Personal tabs can be accessed anytime from any device, even offline.
Learn more »
Give kudos to tab author, rate the tab!
1 2 3 4 5
comments
print report bad tab
1 comment total.
0 reply
SoftParade1967 522 Dec 20, 2008 08:53 AM

i love this bassline! So fun to play. Strypers awesome.

guest
You may want to rate the tab now too:
select rating
Wanna post a correction for this tab? Suggest correction