Oops, an error
Loading. Please wait.

Falling For You bass

version 1
version 1

Whole song

Interactive

511 views 1 this week
2 commentsread comments
1 2 3 4 5
1 last vote to show rating
add to favorites
×
Save as Personal and add changes to this tab that will be seen only by you. Learn more ›
×
You can save this tab as Personal to edit and correct it or add notes. All changes will be seen only by you. Learn more »
launch autoscroll
font size
0
reset
guitar tuner
edit
Autoscroll
slow
fast
+/-
esc
set tempo
stop
Author
Student Rick - Fallling For You 

Hey Guys! first tab lol hope this helps yu guys out =D 

Enjoy. Rock On!

Justin =D

Standard Tuning (E,A,D,G)

Intro
G|-----------------------------------------|
D|-----------------------------------------|
A|------------66666666---------------------|
E|--44444444-------------11111111---0------|

Intro 2
G|--------------------------------------------|
D|--------------------------------------------|
A|------------66666666--88888888--77777777----|   x2
E|--44444444----------------------------------|

Verse
G|--------------------------------------------|
D|--------------------------------------------|
A|------------66666666------------------------|
E|--44444444------------11111111---00000000---|

G|--------------------------------------------|
D|--------------------------------------------|
A|--44444444--66666666------------------------|
E|----------------------11111111---0----------|

Pre Chorus
G|-------------------------------------------|
D|-------------------------------------------|
A|------------66-----88888888--77777777------|
E|--/12---44---------------------------------|

G|-------------------------------------------|
D|-------------------------------------------|
A|-------66-----88888888-----77777777--------|
E|--44---------------------------------------|

Chorus
G|---------------------------------------------------------|
D|---------------------------------------------------------|
A|------------------------------------44444444--66666666---|   x2
E|--4444444444444444--1111111111111111---------------------|

G|-------------|
D|-------------|
A|-------------|
E|--88888888---|

Intro 2 x2
Verse x2
Pre Chorus x2
Chorus x2

End of chorus 2:
G|-----------------------|
D|-----------------------|
A|-----------------------|
E|--444444444444--3-2-1--|

Interlude
G|--------------------------------------------|
D|--------------------------------------------|
A|------------44444444------------------------|   x2
E|--11111111------------44444444---33333333---|

G|-----------------------------------------|
D|-----------------------------------------|
A|--------3h44444444-----------------------|
E|--11----------------44444444---33333333--|

G|----------------------------------------------|
D|----------------------------------------------|
A|-------44444444-------------------------------|
E|--11-------------44444444---3333333333333333--|

Intro 2 x2
Chorus x2

Ending
G|------------------------------------------------|
D|------------------------------------------------|
A|-----------------------------------3h4p3--------|
E|--00000000-22222222-00000000-2222---------4-----|

            
            
Suggest correction
Creating personal tab
Creating personal tab
You can edit any tab online and save it as your Personal.

You can edit, replace or remove any tab part or add personal notes – all changes will be seen only by you.

Personal tabs can be accessed anytime from any device, even offline.
Learn more »
Give kudos to tab author, rate the tab!
1 2 3 4 5
comments
print report bad tab
2 comments total.
+1 reply
tdwp619 111 Oct 13, 2008 09:40 AM

although its easy its perfect, thanks

0 reply
jushteenie 50 Aug 26, 2009 06:36 AM

No worries man.

guest
You may want to rate the tab now too:
select rating
Wanna post a correction for this tab? Suggest correction