Oops, an error
Loading. Please wait.

Call To Arms chords

2,335 views 36 this week
1 commentread comment
1 2 3 4 5
x 6
add to favorites
×
Save as Personal and add changes to this tab that will be seen only by you. Learn more ›
×
You can save this tab as Personal to edit and correct it or add notes. All changes will be seen only by you. Learn more »
launch autoscroll
font size
0
reset
transpose
0
reset
display chords
guitar tuner
edit
Autoscroll
slow
fast
+/-
esc
set tempo
stop
Author
Strumming
There is no strumming pattern for this song yet. and get +5 IQ
Sturgill Simpson
Call to Arms
From "A Sailor's Guide To Earth"
Tabbed by thatchadmiller (Twitter)


As far as chords go, this entire song is just a jam in E. I'll include the tab for the horn section
but just jam with boogie woogie blues riffs in E throughout the entire song.

The riff is working around something this but he's just in the studio jamming so it's all over the place.
e|-------------(0)-----------------------------------------------------------|
B|-------------(0)-----------------------------------------------------------|
G|---------------------------------------------------------------------------|
D|--------------2------------------------------------------------------------|
A|----4-2--4--2----4-2---5-5-4-2---------------------------------------------|
E|--0----------------------------0-------------------------------------------|


E the entire time!
I done Syria, Afghanistan, Iraq, and Iran
North Korea tell me where does it end?
Well the bodies keep piling up with every day
How many more are they gonna send

Well they send their sons and daughters off to die for some oil
and to control the heroin
Well son I hope you don’t grow up
Believing that you’ve got to be a puppet to be a man

Well they cut off your hair and put a badge on your arm
Strip you of your identity
Tell you to keep your mouth shut boy and get in the line
Meet your maker overseas

Wearing that Kim Jong-il hat while your grandma’s selling pills stat
Meanwhile, I’m wearing my ‘can’t pay my fucking bills’ hat

Nobody’s looking up to care about a drone
All too busy looking down at our phone
Our ego’s begging for food like a dog from our feed
Refreshing obsessively until our eyes start to bleed
They serve up distractions and we eat them with fries
Until the bombs fall out of our fucking skies

Horn interlude
e|---------------------------------------------------------------------------|
B|---------------------------------------------------------------------------|
G|--12--------------12-12--------------------12-----------12-----------------|
D|------14-12-14-12-------14------12-13-14-------14-12-14----------12-13-14--|
A|-----------------------------14-------------------------------14-----------|
E|---------------------------------------------------------------------------|

Solo (guitar and piano)

Turn off the TV
Turn off the news
Nothing to see here
They’re serving the blues
Bullshit on my TV
Bullshit on my radio
Hollywood telling me how to be me
The bullshit’s got to go


If you have any input or corrections, hit me up on Twitter and let me know
if you have any songs you need help with. God bless!

            
            
Suggest correction
Creating personal tab
Creating personal tab
You can edit any tab online and save it as your Personal.

You can edit, replace or remove any tab part or add personal notes – all changes will be seen only by you.

Personal tabs can be accessed anytime from any device, even offline.
Learn more »
comments
print report bad tab
1 comment total.
+1 reply
eeeefran 10 Apr 29, 2017 10:39 PM

Great job. Nice that someone tabs this, great song.

guest
You may want to rate the tab now too:
select rating
Wanna post a correction for this tab? Suggest correction