Oops, an error
Loading. Please wait.

Indian intro tab

version 1
version 1

Intro

Whole song

Interactive

4,643 views 1 this week
4 commentsread comments
1 2 3 4 5
x 3
add to favorites
×
Save as Personal and add changes to this tab that will be seen only by you. Learn more ›
×
You can save this tab as Personal to edit and correct it or add notes. All changes will be seen only by you. Learn more »
launch autoscroll
font size
0
reset
how to read this tab
guitar tuner
edit
Autoscroll
slow
fast
+/-
esc
set tempo
stop
----------------------------------------------------------------------------
                Sturm Und Drang-Indian
----------------------------------------------------------------------------
| /  slide up
| \  slide down
| h  hammer-on
| p  pull-off
| ~  vibrato
| +  harmonic
| x  Mute note
| nh Natural harmonic

!!Here is the intro of a great song. I'll maybe do rest of the song later..!! 

Tuning: eb,Bb,Gb,Db,Ab,Eb
Tabbed By: Camillamazilla

Intro:
   Bm                             Em            A
eb|-----------------------------------0------0------------------------2--|
Bb|----3------3------3------3----------0------0-----2-----2-----3-----3--|
Gb|---4-4----4-4----4-4----4-4------0---0---0--0---2-2---2-2---4-4---4-4-|
Db|--4---4--4---4--4---4--4---4----2-------2------2---2-2---2-4---4-4---4|
Ab|-2------2------2------2-----------------------0-----0-----2-----2-----|
Eb|-------------------------------0-------0------------------------------|

In first Em, You can do natural harmonic like this:
      nh nh nh
eb|-----12-----|
Bb|-------12---|
Gb|---0-----12-|
Db|--2---------|
Ab|------------|
Eb|0-----------|

(intro could also be played like this, choose the way U like:)
eb|--------------------------------0------0-----------------------------|
Bb|---------------------------------0------0-------------------------7--|
Gb|----7------7------7------7--------0------0----6------6------7-----7--|
Db|---9-9----9-9----9-9----9-9----9------9------7-7----7-7----9-9---9-9-|
Ab|--9---9--9---9--9---9--9---9--7------7------7---7--7---7--9---9-9---9|
Eb|-7------7------7------7------0------0------5------5------7-----7-----|

Intro: (lead)
eb|---------------------------------------------------------|
Bb|--------------------------/7-8---7-----------------------|
Gb|---------7-7/9-(9-9-9-9..)-----9---7-9-------------------|
Db|--/9~--/9-9----------------------------11-12-9-11-7-9-9--|
Ab|---------------------------------------------------------|
Eb|---------------------------------------------------------|

            
            
Suggest correction
Creating personal tab
Creating personal tab
You can edit any tab online and save it as your Personal.

You can edit, replace or remove any tab part or add personal notes – all changes will be seen only by you.

Personal tabs can be accessed anytime from any device, even offline.
Learn more »
Give kudos to tab author, rate the tab!
1 2 3 4 5
comments
print report bad tab
4 comments total. Showing first comments.
0 reply
camillamazilla 184 Dec 07, 2007 11:55 PM

Please note: The right tuning of the song is eb,Bb,Gb,Db,Ab,Eb!! I've marked the tuning right in the beginning of the
song, but wrong before each string (marked e,B,G,D,A,E). Corrections will be updated as soon as possible!

0 reply
Nikkari 10 Jan 29, 2008 04:49 AM

sounds ok. Nice work imo

0 reply
Kitarasande 166 May 10, 2008 08:43 AM

camillamazilla is right its tuning Eb,Bb etc
next time add slides there too...(lead part)
waiting for whole song

guest
You may want to rate the tab now too:
select rating
Wanna post a correction for this tab? Suggest correction