Oops, an error
Loading. Please wait.

Mademoiselle bass

version 1
version 1

Whole song

  • Easy to follow. Watch for the triplets. Fully writ... Show more

Interactive

by Styx
7 views 1 this week
no commentswrite comment
1 2 3 4 5
3 more votes to show rating
add to favorites
×
Save as Personal and add changes to this tab that will be seen only by you. Learn more ›
×
You can save this tab as Personal to edit and correct it or add notes. All changes will be seen only by you. Learn more »
launch autoscroll
font size
0
reset
guitar tuner
edit
Autoscroll
slow
fast
+/-
esc
set tempo
stop
About this tab version
Easy to follow. Watch for the triplets. Fully written out except two repeated lines. Was this info helpful? Yes No
*^*^* = triplet

[Intro]

G|-----------------|-----------------|-----------------|-----------------|
D|-1---1---1---1---|-1---1---1-----1-|-----1---1---1---|-1---1---1-----1-|
A|--------1-------1|--------1--1-3---|--------1-------1|--------1--1-3---|
E|-----------------|-----------------|-----------------|-----------------|

G|-----------------|-----------------|-----------------|-----------------|  x2
D|-----1---1---1---|-1---1---1-----1-|-----1---1---1---|-1---1---1-----1-|
A|--------1-------1|--------1--1-3---|--------1-------1|--------1-1---3--|
E|-----------------|-----------------|-----------------|-----------------|

                                                         *^*^* *^*^* *^*^*
G|-----------------|-----------------|-----------------|-------------------|
D|-----1---1---1---|-1---1---1-----1-|-----1---1---1---|-------------------|
A|--------1-------1|--------1--1-3---|--------1-------1|-1-1-1-1-1-1-1-1-1-|
E|-----------------|-----------------|-----------------|-------------------|


[Chorus]

G|-----------------|-----------------|-----------------|-----------------| x2
D|---1-------------|-(1)-------------|---1-------------|-(1)-------------|
A|-1---------------|-----------------|-1---------------|-----------------|
E|-----------------|-----------------|-----------------|-----------------|


[Verse]

G|-----------------|-----------------|-----------------|-----------------|
D|-----------------|-----------------|-----------------|-----------------|
A|-----------------|-----------------|-----------------|-----------------|
E|-----------------|-----------------|-----------------|-----------------|

G|-----------------|-----------------|-18--17-15--17--15-13--15-|-13-12--13--12--10\---|
D|-----------------|-----------------|--------------------------|----------------------|
A|-----------------|-----------------|--------------------------|----------------------|
E|-----------------|-----------------|--------------------------|----------------------|

G|-----------------|-----------------|-----------------|-----------------|
D|----------------6|-5---------------|-----------------|-----------------|
A|---------4--46---|-----------------|-3---3---3---3---|-3---3---3-------|
E|-4------6--------|--------44--44--6|----------------3|-------------3---|

G|-----------------|-----------------|-----------------|-----------------|
D|-----------------|-----------------|-1---1---1---1---|-1---1---1---1---|
A|-1---1---1---1---|-1---1---1---1---|----------------1|----------------1|
E|-----------------|-----------------|-----------------|-----------------|

G|-----------------|-----------------|-----------------|-----------------|
D|-1---1---1---1---|-1---1---1---1---|-1---1---1---1---|-1---1---1---1---|
A|----------------1|----------------1|----------------1|-----------------|
E|-----------------|-----------------|-----------------|-----------------|

G|--------------------------|---------------------|-----------------|-----------------|
D|--------------------------|---------------------|----------------6|-5---------------|
A|-16--15-13--15--13-11--13-|-11-10--11--10--8\---|---------4--46---|-----------------|
E|--------------------------|---------------------|-4------6--------|--------44--64--6|

                                                         *^*^* *^*^* *^*^*
G|-----------------|-----------------|-----------------|-------------------|
D|-----------------|-----------------|-----------------|-------------------|
A|-3---3---3---3---|-3---3---3-------|-1---1---1---1---|-1-1-1-1-1-1-1-1-1-|
E|----------------3|-------------3---|-----------------|-------------------|


[Chorus]

G|-----------------|-----------------|-----------------|-----------------|
D|---1-------------|-(1)-------------|---1-------------|-(1)-------------|
A|-1---------------|-------------4--3|-1---------------|-------------4--3|
E|-----------------|-----------------|-----------------|-----------------|

                                                         *^*^* *^*^* *^*^* *^*^*
G|-----------------|-----------------|-----------------|-------------------------|
D|---1-------------|-(1)-------------|---1-------------|-1-1-1-1-1-1-1-1-1-1-1-1-|
A|-1---------------|-------------4--3|-1---------------|-------------------------|
E|-----------------|-----------------|-----------------|-------------------------|

G|-----------------|-----------------|-----------------|-----------------|
D|-------------6---|-5---------------|-----------------|-----------------|
A|---------4--4----|-------------4---|-3---3---3---3--3|-(3)-3---3---3---|
E|-4--46--6--------|--4-----44--6----|-----------------|-----------------|

G|-----------------|-----------------|
D|-----------------|-----------------|
A|-1---1---1---1--1|-(1)-1---1---1---|
E|-----------------|-----------------|


[Bridge/Solo]

G|-----------------|-5---------------|-----------------|-----------------|
D|---------5------5|-------5---------|-----------------|-3---------------|
A|-3------3--------|-----------5----3|---------3------3|-------3---------|
E|-----------------|-----------------|-1------1--------|-----------3----1|

G|-----------------|-5---------------|-----------------|-----------------|
D|---------5------5|-------5---------|-----------------|-3---------------|
A|-3------3--------|-----------5----3|---------3------3|-------3---------|
E|-----------------|-----------------|-1------1--------|-----------3----1|

G|-----------------|-----------------|-----------------|-----------------|
D|-----------------|-----------------|-3-------2-------|-1-------0-------|
A|-3---3---3---3---|-3---3---3---3---|-----------------|-----------------|
E|-----------------|-----------------|-----------------|-----------------|

G|-----------------|-----------------|-----------------|-----5---5--8-10--12|
D|-----------------|---------------1-|-----1---1---1---|-1--8---------------|
A|-----------------|-------------1---|------------1----|--------------------|
E|-3---3---3---3---|-3---3---3-------|-----------------|--------------------|

G|-(12)------------|--13-11---8-5-3--|-----------------|------------------|
D|-----------------|-----------------|-1---1---1---1---|-1----------1-3---|
A|-----------------|----------------1|-----------------|----1-3---5------1|
E|-----------------|-----------------|-----------------|------------------|

G|-----------------|------------------|-----------------|------------------|
D|-1---1---1---1---|-1----------1-3---|-1---1---1---1---|-1----------1-3---|
A|-----------------|----1-3---5------1|-----------------|----1-3---5------1|
E|-----------------|------------------|-----------------|------------------|

                     *^*^* *^*^* *^*^*
G|-----------------|-------------------|
D|-1---1---1---1---|-------------------|
A|-----------------|-1-1-1-1-1-1-1-1-1-|
E|-----------------|-------------------|


[Chorus]

G|-----------------|-----------------|-----------------|-----------------|
D|---1-------------|-(1)-------------|---1-------------|-(1)-------------|
A|-1---------------|-------------4--3|-1---------------|-------------4--3|
E|-----------------|-----------------|-----------------|-----------------|

                                                         *^*^* *^*^* *^*^* *^*^*
G|-----------------|-----------------|-----------------|-------------------------|
D|---1-------------|-(1)-------------|---1-------------|-------------------------|
A|-1---------------|-------------4--3|-1---------------|-1-1-1-3-3-3-4---3---1---|
E|-----------------|-----------------|-----------------|-------------------------|


[Outro]

G|-----------------|------------------|-----------------|-------------0--3-| (Repeat to fade)
D|-1---1---1---1---|-1----------1-3---|-1---1---1---1---|-------1--3-------|
A|-----------------|----1-3---5------1|----------------1|-3--4-------------|
E|-----------------|------------------|-----------------|------------------|


Hope you enjoy! Fun song. Let me know if you have corrections!

************************************

| (n) Ghost note
| \   Slide down

************************************

            
            
Suggest correction
Creating personal tab
Creating personal tab
You can edit any tab online and save it as your Personal.

You can edit, replace or remove any tab part or add personal notes – all changes will be seen only by you.

Personal tabs can be accessed anytime from any device, even offline.
Learn more »
Give kudos to tab author, rate the tab!
1 2 3 4 5
comments
print report bad tab
guest
You may want to rate the tab now too:
select rating
Wanna post a correction for this tab? Suggest correction