Oops, an error
Loading. Please wait.

Ebin tab

version 2
version 2

Whole song

Interactive

by Sublime
16,597 views 27 this week
3 commentsread comments
1 2 3 4 5
x 5
add to favorites
×
Save as Personal and add changes to this tab that will be seen only by you. Learn more ›
×
You can save this tab as Personal to edit and correct it or add notes. All changes will be seen only by you. Learn more »
launch autoscroll
font size
0
reset
how to read this tab
guitar tuner
edit
Autoscroll
slow
fast
+/-
esc
set tempo
stop
Someone else tabbed this song but for some reason was half a step up from 
the CD, so I made a little program to step those tabs down.  Sorry about 
"09" everywhere but I had to do that when stepping down from "10" to keep 
the formatting.  These are some pretty good tabs and I'd like to thank OP.

Anyways:

slides / (up) \ (down) h=hammers p=pull off ~=vibrato 

x b y= bend the x fret to equal y fret r=release bend 

[x]= artificial harmonic (follow through with thumb) 

(x)= a note that sounds like it is on another guitar 

Chords used for the intro and most of the verse 
e|----2-------0-------------| 
B|----3-------0-------------| 
G|----4-------0-------------| 
D|----4-------2-------------| 
A|----2-------2-------------| 
E|------------0-------------| 
Rhythms will vary from ska to just soft arpeggios 

"I feel like my whole life is rearranged" 
e|---3----2--2--2--2---| 
B|---3----2--3--2--3---| 
G|---4----3--4--3--4---| 
D|---5----4--4--4--4---| 
A|---5----4--2--4--2---| 
E|---3----2-----2------| 

"oh how you've changed" 
e|-----2-------2-----2----3p2---2----------------------0------| 
B|-----3-------3---3---3------3----2------2------------0------| 
G|----4--------2-------------------------2------------1-------| 
D|---4----------------------------------2------------2--------| 
A|--2----------------------------------0------------2---------| 
E|-------------------------------------------------0----------| 

"I give you a hard time..." 
e|--2--2--2--2--2--2--2--2--0--0--0--0--0--0--0--0--| 
B|--3--3--3--3--3--3--3--3--2--2--2--2--0--0--0--0--| 
G|--4--4--4--4--2--2--2--2--2--2--2--2--1--1--1--1--| 
D|--------------------------------------------------| 
A|--------------------------------------------------| 
E|--------------------------------------------------| 
upstrokes only 

"my friend ebin is a nazi!" 
e|--2-x-2-x-2-x-2-x-----------------5-x-5-x-5-x-5-x-4-x-4-x-4-x-4-| 
B|--3-x-3-x-3-x-3-x-7-x-7-x-7-x-7-x-5-x-5-x-5-x-5-x-5-x-5-x-5-x-5-| 
G|--4-x-4-x-4-x-4-x-7-x-7-x-7-x-7-x-6-x-6-x-6-x-6-x-4-x-4-x-4-x-4-| 
D|--4-x-4-x-4-x-4-x-7-x-7-x-7-x-7-x-7-x-7-x-7-x-7-----------------| 
A|--2-x-2-x-2-x-2-x-5-x-5-x-5-x-5-x-7-x-7-x-7-x-7-----------------| 
E|----------------------------------5-x-5-x-5-x-5-----------------| 

Solo 
e|-----------------------------------------------------------| 
B|-----------------------------------------------------------| 
G|--09b11-09b11-09b11r09p7----7----09p7---09p7---09p7--------| 
D|-------------------------09---09------09-----09-----(09)---| 
A|-----------------------------------------------------------| 
E|-----------------------------------------------------------| 

pm................................. 
e|-10p09p7---------------------------------------------------------| 
B|---------10p09p7-------------------------------------------------| 
G|-----------------09-7--------------------------------7----7------| 
D|----------------------09~--------------------7---7-09---09---09--| 
A|----------------------------------------7-09--09-----------------| 
E|-----------------------------/7-7-10-10--------------------------| 

e|--------------------------------------------------------| 
B|--------------------------------------------------------| 
G|-[09]b10-[09]b10-[09]b10--[09]b11r09p7---(09b11r09)-----| 
D|---------------------------------------09~--------------| 
A|--------------------------------------------------------| 
E|--------------------------------------------------------| 

(make sure to do a full artificial harmonic) 
e|--------------------------------------------------------------------| 
B|--------------------------------------------------------------------| 
G|------7-[09]b11-7----------7-[09]b11-7----------7-09p7----09p7------| 
D|-7h09-------------09--7h09-------------09--7h09--------09------09---| 
A|--------------------------------------------------------------------| 
E|--------------------------------------------------------------------| 

e|----10p09p7---------------------------------------------------------| 
B|------------10p09p7---------7------------7------7------7-----7------| 
G|-7------------------09-7-09---09-7--09b11--09b11--09b11-09b11-------| 
D|--------------------------------------------------------------------| 
A|--------------------------------------------------------------------| 
E|--------------------------------------------------------------------| 

e|--7----7------------------------------------------------------------| 
B|----10---10---------------------------------------------------------| 
G|-------------09-7---------------------------------------------------| 
D|------------------09-7----09-7-------------7------------------------| 
A|-----------------------09------09-7-5~---------7---09---7--09--7-7~-| 
E|--------------------------------------------------------------------| 

e|-------------------------------------------------------------| 
B|-------------------------------------------------------------| 
G|------------------7-------------7---[09]p7----7--------------| 
D|-7---------7--09----09~------09---09-------09--09-7----------| 
A|----7--09------------------------------------------09-7-[5]--| 
E|-------------------------------------------------------------| 
pm............................. 
e|--------------------------------------------------------------------| 
B|--------------------------------------------------------------------| 
G|-----------------------7----7----[09]b10-----[09]b10-----[09]-[7]b8~| 
D|-------------7----7------09---09------[09]b10------[09]b10----------| 
A|--------7-09---09---09----------------------------------------------| 
E|/7-7-10-------------------------------------------------------------| 


pm ................ it gets kinda faded here 
e|--------------------------------------------------------------------| 
B|----------------------------------------------------([5]b7)---------| 
G|-------------------------7--09p7---09p7---09p7--09p7--09p7--09p7----| 
D|------------------7--09---------09-----09-----09----09----09--------| 
A|------------7-09----------------------------------------------------| 
E|--/7-7-7-10---------------------------------------------------------| 
"out my window..." 
e|-------------------------------------| 
B|----------------------------(7)------| 
G|---09p7--09p7--09p7--[09]b11~--------| 
D|-09----09----09----09----------------| 
A|-------------------------------------| 
E|-------------------------------------|

            
            
Suggest correction
Creating personal tab
Creating personal tab
You can edit any tab online and save it as your Personal.

You can edit, replace or remove any tab part or add personal notes – all changes will be seen only by you.

Personal tabs can be accessed anytime from any device, even offline.
Learn more »
comments
print report bad tab
3 comments total.
0 reply
Tim_McEuen 10 Dec 02, 2009 07:35 PM

good job, sounds great

0 reply
ienjoythings 10 Dec 19, 2013 08:09 AM

seems like you can't hear the difference between minor and maj chords

0 reply
ienjoythings 10 Dec 19, 2013 08:10 AM

nvm im the one who cant

guest
Wanna post a correction for this tab? Suggest correction