Oops, an error
Loading. Please wait.

Foolish Fool tab

version 2
version 2

Whole song

by Sublime
14,156 views 6 this week
4 commentsread comments
1 2 3 4 5
x 5
add to favorites
×
Save as Personal and add changes to this tab that will be seen only by you. Learn more ›
×
You can save this tab as Personal to edit and correct it or add notes. All changes will be seen only by you. Learn more »
launch autoscroll
font size
0
reset
how to read this tab
guitar tuner
edit
Autoscroll
slow
fast
+/-
esc
set tempo
stop
--------------------------------------------------------------------------
                             Foolish Fool - Sublime
--------------------------------------------------------------------------
                          Transcribed by: Cade Nickels
                            


CD: Sublime Acoustic: Bradley Nowell & Friends
Track: 3
Tuning: 1/2 step



Intro
          "Crazy, crazy...                crazy fool       
    u  d
e|--5--5--|---------------|-----------|-4-----------4-3-2-|
B|--5--5--|---------------|-----------|-5-----------5-4-3-|
G|--4--4--|---------------|-----------|-6-----------6-5-4-|
D|--6--6--|---------------|-----------|-6-----------6-5-4-|
A|--6--6--|---------------|-----------|-4-----------4-3-2-|
E|--5--5--|---------------|-5-5-0-8-9-|-4-----------4-3-2-|

   cra__-zy   fool
                                  S.P.-| 
e|-------2--|-5-x-5-5-5-5-|-5-x-5-----5-5-|
B|-------3--|-5-x-5-5-5-5-|-5-x-5----5--5-|
G|-------4--|-4-x-4-4-4-4-|-4-x-4---4---4-|
D|-------4--|-6-x-6-6-6-6-|-6-x-6--6----6-|
A|-------2--|-6-x-6-6-6-6-|-6-x-6-6-----6-|
E|-------2--|-5-x-5-5-5-5-|-5-x-5-------5-|

    If she...
                       S.P.-| 
e|--5-x-5-5-5-5-|-5-x-5-----5-5-|
B|--5-x-5-5-5-5-|-5-x-5----5--5-|
G|--4-x-4-4-4-4-|-4-x-4---4---4-|
D|--6-x-6-6-6-6-|-6-x-6--6----6-|
A|--6-x-6-6-6-6-|-6-x-6-6-----6-|
E|--5-x-5-5-5-5-|-5-x-5-------5-|

  dispose...
e|--7-7-7-7--|--7-7-7-7--|
B|--7-7-7-7--|--7-7-7-7--|
G|--9-9-9-9--|--9-9-9-9--|
D|--7-7-7-9--|--7-7-7-7--|
A|--7-7-7-7--|--7-7-7-7--|
E|--x-x-x-x--|--x-x-x-x--|

                gotta be...
e|--6-6-6-6--|--6-6-6-6--|
B|--6-6-6-6--|--6-6-6-6--|
G|--7-7-7-7--|--7-7-7-7--|
D|--7-7-7-7--|--7-7-7-7--|
A|--5-5-5-5--|--5-5-5-5--|
E|--6-6-6-6--|--6-6-6-6--|

                crazy fool
e|--4-4-4-4--|--4-4-4-4--|
B|--5-5-5-5--|--5-5-5-5--|
G|--6-6-6-6--|--6-6-6-6--|
D|--6-6-6-6--|--6-6-6-6--|
A|--4-4-4-4--|--4-4-4-4--|
E|--4-4-4-4--|--4-4-4-4--|


e|--4-3-2--|
B|--5-4-3--|
G|--6-5-4--|
D|--6-5-4--|
A|--4-3-2--|
E|--4-3-2--|

    cra ___ - zy 
e|--2-2-2-2---2-|
B|--3-3-3-3---3-|
G|--4-4-4-4---4-|
D|--4-4-4-4---4-|
A|--2-2-2-2---2-|
E|--2-2-2-2---2-|

    fool
e|--5-x-5-5-5-5-|
B|--5-x-5-5-5-5-|
G|--4-x-4-4-4-4-|
D|--6-x-6-6-6-6-|
A|--6-x-6-6-6-6-|
E|--5-x-5-5-5-5-|

   
e|--5-5-5--|--4-4-4--|
B|--5-5-5--|--4-4-4--|
G|--4-4-4--|--3-3-3--| *double time feel
D|--6-6-6--|--5-5-5--|
A|--6-6-6--|--5-5-5--|
E|--5-5-5--|--4-4-4--|

    My...
e|--2-2-2-2--|--2-2-2-2--|------------------14--|
B|--0-0-0-0--|--0-0-0-0--|------------------14--|
G|--4-4-4-4--|--4-4-4-4--|----------------------|
D|--4-4-4-4--|--4-4-4-4--|----------------------|
A|--2-2-2-2--|--2-2-2-2--|----------------------|
E|--2-2-2-2--|--2-2-2-2--|--2/5-5-7-2-0-2-------|

    We...
e|--2-2-2-2--|--2-2-2-2--|------------------14--|
B|--0-0-0-0--|--0-0-0-0--|---------------14-----|
G|--4-4-4-4--|--4-4-4-4--|----------------------|
D|--4-4-4-4--|--4-4-4-4--|----------------------|
A|--2-2-2-2--|--2-2-2-2--|----------------------|
E|--2-2-2-2--|--2-2-2-2--|-2/5-5-7-2-0-5--------|

    If I...
e|--2-2-2-2--|--2-2-2-2--|----------------------|
B|--0-0-0-0--|--0-0-0-0--|----------------------|
G|--4-4-4-4--|--4-4-4-4--|----------------------|
D|--4-4-4-4--|--4-4-4-4--|----------------------|
A|--2-2-2-2--|--2-2-2-2--|----------------------|
E|--2-2-2-2--|--2-2-2-2--|-2/5-5-7-2-0-5--------|


e|--9--8--7--|
B|--9--8--7--|
G|--11-10-9--|
D|--11-10-9--|
A|--9--8--7--|
E|--x--x--x--|

    is this...
e|--7-7-7-7-7-7-7-7-|-7-7-7-7-7-7-7-7-|
B|--7-7-7-7-7-7-7-7-|-7-7-7-7-7-7-7-7-|
G|--9-9-9-9-9-9-9-9-|-9-9-9-9-9-9-9-9-|
D|--9-9-9-9-9-9-9-9-|-9-9-9-9-9-9-9-9-|
A|--7-7-7-7-7-7-7-7-|-7-7-7-7-7-7-7-7-|
E|--x-x-x-x-x-x-x-x-|-x-x-x-x-x-x-x-x-|

   now_...     foolish...
e|-5-5-5-5-5-|-5-5-5-|-----------|
B|-5-5-5-5-5-|-5-5-5-|-----------|
G|-4-4-4-4-4-|-4-4-4-|-----------|
D|-6-6-6-6-6-|-6-6-6-|-----------|
A|-6-6-6-6-6-|-6-6-6-|-----------|
E|-5-5-5-5-5-|-5-5-5-|-5-5-7-8-9-|

     ohh ya...
e|--9--9--9--9--|-9--8--7-|
B|--9--9--9--9--|-9--8--7-|
G|--9--9--9--9--|-9--8--7-|
D|--11-11-11-11-|-11-10-9-|
A|--11-11-11-11-|-11-10-9-|
E|--9--9--9--9--|-9--8--7-|

         foolish...
e|--7-7-7-7-|-7-7-7-7-|
B|--7-7-7-7-|-7-7-7-7-|
G|--7-7-7-7-|-7-7-7-7-|
D|--9-9-9-9-|-9-9-9-9-|
A|--9-9-9-9-|-9-9-9-9-|
E|--7-7-7-7-|-7-7-7-7-|

      girl_   0hhh...
e|--7-7-7-7-|-7-7-7-7-|
B|--7-7-7-7-|-7-7-7-7-|
G|--9-9-9-9-|-9-9-9-9-|
D|--9-9-9-9-|-9-9-9-9-|
A|--7-7-7-7-|-7-7-7-7-|
E|--x-x-x-x-|-x-x-x-x-|


   ohhh...
e|-5-5-5-5-5-|-5-5-5-|-----------|
B|-5-5-5-5-5-|-5-5-5-|-----------|
G|-4-4-4-4-4-|-4-4-4-|-----------|
D|-6-6-6-6-6-|-6-6-6-|-----------|
A|-6-6-6-6-6-|-6-6-6-|-----------|
E|-5-5-5-5-5-|-5-5-5-|-5-5-7-8-9-|

     ohh ya..
e|--9--9--9--9--|-9--8--7-|
B|--9--9--9--9--|-9--8--7-|
G|--9--9--9--9--|-9--8--7-|
D|--11-11-11-11-|-11-10-9-|
A|--11-11-11-11-|-11-10-9-|
E|--9--9--9--9--|-9--8--7-|

     crazy         
e|--7-7-7-7-|-7-7-7-7-|
B|--7-7-7-7-|-7-7-7-7-|
G|--7-7-7-7-|-7-7-7-7-|
D|--9-9-9-9-|-9-9-9-9-|
A|--9-9-9-9-|-9-9-9-9-|
E|--7-7-7-7-|-7-7-7-7-|

   girl
e|-5-5-5-5-|-5-5-5-5-|
B|-5-5-5-5-|-5-5-5-5-|
G|-4-4-4-4-|-4-4-4-4-|
D|-6-6-6-6-|-6-6-6-6-|
A|-6-6-6-6-|-6-6-6-6-|
E|-5-5-5-5-|-5-5-5-5-|

   If she...   
e|--5-x-5-5-5-5-|
B|--5-x-5-5-5-5-|
G|--4-x-4-4-4-4-|
D|--6-x-6-6-6-6-|
A|--6-x-6-6-6-6-|
E|--5-x-5-5-5-5-|

    take
e|--7-7-7-7-|-7-7-7-7-|
B|--7-7-7-7-|-7-7-7-7-|
G|--9-9-9-9-|-9-9-9-9-|
D|--9-9-9-9-|-9-9-9-9-|
A|--7-7-7-7-|-7-7-7-7-|
E|--x-x-x-x-|-x-x-x-x-|

     crazy, crazy...
e|--5-5-5-5-|-5-5-5-5-|
B|--5-5-5-5-|-5-5-5-5-|
G|--7-7-7-7-|-7-7-7-7-|
D|--7-7-7-7-|-7-7-7-7-|
A|--5-5-5-5-|-5-5-5-5-|
E|--x-x-x-x-|-x-x-x-x-|

      crazy fool
e|--4-4-4-4-|-4-4-4-4-|
B|--5-5-5-5-|-5-5-5-5-|
G|--6-6-6-6-|-6-6-6-6-|
D|--6-6-6-6-|-6-6-6-6-|
A|--4-4-4-4-|-4-4-4-4-|
E|--4-4-4-4-|-4-4-4-4-|

        cra_zy 
        ~~~~~~
e|--4-3-2-----|
B|--5-4-3-----|
G|--6-5-4-----|
D|--6-5-4-----|
A|--4-3-2-----|
E|--4-3-2-----|


    cra___-zy 
    ~~~~~~~~~
e|--2--------|
B|--3--------|
G|--4--------|
D|--4--------|
A|--2--------|
E|--2--------|



|/   slide up
|\   slide down
|h   hammer-on
|p   pull-off
|~   vibrato
|+   harmonic
|x   Mute note
|S.P.Sweep pickin
|u   strum up
|d   strum down

===========================================================================
                   Learn it. Rate it. Play it.
===========================================================================

Lyrics:

Crazy crazy
Crazy fool
Crazy fool

If she thinks that she is gonna dispose my world
Id be a crazy crazy crazy -- crazy fool
Crazy fool

My love for you was oh so strong
We went together for oh so long
If I dont complain about this misery yah
Is this the way loves supposed to be,
Supposed to be now
Foolish foolish
Oh you just a foolish girl

Ohhhhhhhhh foolish foolish
Oh ya just a crazy girl

If she thinks that she is gonna take you from me
Gotta be a crazy crazy crazy -- crazy fool
Crazy fool

            
            
Suggest correction
Creating personal tab
Creating personal tab
You can edit any tab online and save it as your Personal.

You can edit, replace or remove any tab part or add personal notes – all changes will be seen only by you.

Personal tabs can be accessed anytime from any device, even offline.
Learn more »
comments
print report bad tab
4 comments total. Showing first comments.
0 reply
jetsdoit_jetsgo 10 Mar 23, 2013 10:21 AM

Can anybody explain how I'm supposed to play that first chord? I've been trying to figure this out for months now, and I can't find any information on the name of the chord, or how to finger it. I would greatly appreciate it, as this seems to be the best tab around for this song.

0 reply
OpIvy86 41 Apr 12, 2013 11:28 AM

It's an A major bar chord. Your index finger "bars" the entire 5th fret. Your ring finger and pinky finger both play the 7th fret on the 5 and 4th strings respectively (ring finger on top, pinky finger below). Then your middle finger plays the 6th fret beneath the pinky.

If you've never played a bar chord before this can be quite difficult as most Sublime songs use bar chords especially the acoustic songs. Keep practicing.

0 reply
mfindora5210 10 Jan 30, 2015 05:45 AM

that tab looks off for the first bar chord. like the original commenter said, it looks off. Shouldn't it be 556775? not 554665? maybe im not understanding bar chords, but i assume the lowest note on the frets is barred and the rest "respectively" added?

guest
You may want to rate the tab now too:
select rating
Wanna post a correction for this tab? Suggest correction