Oops, an error
Loading. Please wait.

Pawn Shop tab

version 5
version 5

Whole song

Interactive

by Sublime
11,681 views 24 this week
no commentswrite comment
1 2 3 4 5
x 6
add to favorites
×
Save as Personal and add changes to this tab that will be seen only by you. Learn more ›
×
You can save this tab as Personal to edit and correct it or add notes. All changes will be seen only by you. Learn more »
launch autoscroll
font size
0
reset
how to read this tab
guitar tuner
edit
Autoscroll
slow
fast
+/-
esc
set tempo
stop
Author
Difficulty
Pawn Shop- Sublime tab by Ken Lee

This is my first tab. Pawn Shop has 3 solos, each are a little different and got tired
of no one posting anything but the first solo, so I figured out the other two myself and
posted it here for all you guys who couldn't figure them out. This is really accurate, 
might not be the exact places where they originally played but sounds the same. I divided
the song into many riffs so that it's easier to learn. Rhythm chords are on bottom.

[Riff 1]
play multiple times, appears in opening and before a solo
E|-------------|
B|-------------|
G|------0------|
D|--0h2---0h2--|   (hammer on as soon as you hit string on second 0h2)
A|-------------|
E|-------------|

[Riff 2]
(Beginning part of all the solos)

E|----------------------|
B|-------------------3--|
G|--2/4--2--0--2--4-----|
D|----------------------|    (whole riff is played fast, about 3 seconds)
A|----------------------|
E|----------------------|

[Riff 3] 
(repeated 4 times in each solo before moving on to next riff)

E|-------------------------------------|
B|------------------------3------------|
G|--2/4--2--0-----0--2--4-----4--2--4--|
D|-------------2-----------------------|
A|-------------------------------------|
E|-------------------------------------|

[Riff 4]
(played only once per solo right after riff 3, pause a second at the vertical lines)

E|------0--3--0--|------0--3--0--0-----------------|------0--3-----|
B|--3------------|--3----------------3--0-------3--|---3--------5--|
G|---------------|--------------------------2/4----|---------------|
D|---------------|---------------------------------|---------------|
A|---------------|---------------------------------|---------------|
E|---------------|---------------------------------|---------------|

[Riff 5]
(same for all solos)

E|---------------------------10--|
B|--5/12--12--10--8--10--12------|
G|-------------------------------|
D|-------------------------------|
A|-------------------------------|
E|-------------------------------|

[Riff 6]
(Same for all solos BUT on solo 2 you play twice before moving on)

E|----------------------------------10----------|
B|--10h12--10--8-----8---10--12--12-----10--12--|
G|----------------9-----------------------------|
D|----------------------------------------------|
A|----------------------------------------------|
E|----------------------------------------------|

[Riff 7a]
(Only for solos 1 & 2)

E|--10--12--15--12v--|
B|-------------------|
G|-------------------|
D|-------------------|
A|-------------------|
E|-------------------|

[Riff 7b]
played only on solo 3, pause after riff 6 and play.

E|--15--12v--|
B|-----------|
G|-----------|
D|-----------|
A|-----------|
E|-----------|

[Riff 8]

E|--10--12--15--12--12--10-------------------------------------------------|
B|--------------------------------12--10h12--------------------------------|
G|----------------------------------------------12h14----------------------|
D|--------------------------------------------------------12h14------------|
A|------------------------------------------------------------------12h14--|
E|-------------------------------------------------------------------------|

[Riff 9]
played at end of all solos, is also the bass line if you want to play during 
verse and chorus

E|---------------------------------------------|
B|---------------------------------------------|
G|---------------------------------------------|
D|---------------------------------------------|
A|------7--10--10------7--10--10--7------------|
E|--10-------------10----------------10--7--10-|

Those are all the parts for the lead guitar

The Chords for the rhythm part are just Em and a Bm bar-chord, the rhythm is simple just
lightly strum the low e string then up stroke the chord, play each chord 4 times. That
covers just about everything,I hope you've enjoyed this tab



************************************

| h  Hammer-on
| /  Slide up 

************************************

            
            
Suggest correction
Creating personal tab
Creating personal tab
You can edit any tab online and save it as your Personal.

You can edit, replace or remove any tab part or add personal notes – all changes will be seen only by you.

Personal tabs can be accessed anytime from any device, even offline.
Learn more »
comments
print report bad tab
guest
You may want to rate the tab now too:
select rating
Wanna post a correction for this tab? Suggest correction