Oops, an error
Loading. Please wait.
We have an official Santeria tab made by UG professional guitarists. Check out the tab »
×
by Sublime
44,350 views 6 this week
6 commentsread comments
1 2 3 4 5
x 8
add to favorites
×
Save as Personal and add changes to this tab that will be seen only by you. Learn more ›
×
You can save this tab as Personal to edit and correct it or add notes. All changes will be seen only by you. Learn more »
launch autoscroll
font size
0
reset
guitar tuner
backing track
0:00
0:00
edit
Autoscroll
slow
fast
+/-
esc
set tempo
stop
Santeria
Sublime
_________________________
not sure about intro
_________________________

Verse and bridge
|----------------------------------------------------------------------------|
|------------------------7-h9-7h9--6-----------------------------------------|
|-7----------------7-7------------------6--------------------4-4-4-4-4-------|
|----7-h9-7-h9---------------------------4--4-h6-4-h6--------------7-7-7-77--|

only play -6
-----------------6---
-------------------4- the first time

other times play
|-------------------------|
|-6------------------6----|
|----6--h8--6--h8---------|
|------------------------4|

chorus

|-----------------------------|
|-------7-------9-------------|
|-----7-------9-----5-4-2-----|
|--5-------7------------------|

once again another butiful song tabbed by your friend Enemyoffline

            
            
Suggest correction
Creating personal tab
Creating personal tab
You can edit any tab online and save it as your Personal.

You can edit, replace or remove any tab part or add personal notes – all changes will be seen only by you.

Personal tabs can be accessed anytime from any device, even offline.
Learn more »
comments
print report bad tab
6 comments total. Showing first comments.
0 reply
roger_bass 10 Aug 13, 2003 08:00 PM

chorus

|-----------------------------|
|-----------------------------|
|-----7-7-----9-9----7-6-5----|
|--5-------7------------------|

0 reply
BASSMASTA1988 10 Sep 01, 2008 07:45 AM

theres way more. ur missing alot. and its confusing

0 reply
mrlime9419 51 Jan 04, 2009 11:22 PM

yeah there's more that just that

guest
Wanna post a correction for this tab? Suggest correction