Oops, an error
Loading. Please wait.

Pantomine Horse tab

by Suede
493 views 3 this week
no commentswrite comment
1 2 3 4 5
1 last vote to show rating
add to favorites
×
Save as Personal and add changes to this tab that will be seen only by you. Learn more ›
×
You can save this tab as Personal to edit and correct it or add notes. All changes will be seen only by you. Learn more »
launch autoscroll
font size
0
reset
how to read this tab
guitar tuner
edit
Autoscroll
slow
fast
+/-
esc
set tempo
stop
Song: Pantomime Horse
Artist: Suede
Album: Suede
Year: 1993
Tuning: Eb Standard

Intro

|-0---------------0-----0----- etc (again 13 times)
|--0------------0---0-----0---
|---1-------1-2-------2-----2-
|----2------------------------
|-----2-----------------------
|-----------------------------

|-0-----------------0-----0-----0---------0-------0-----0-----0-----
|--0--------------3---3-----3-----3-----3---3---3---3-----3----0----
|---1-------1-2-2-------2-----2-----2-2-------2-------2-----2---1---
|----2-----------------------------------------------------------2--
|-----2-----------------------------------------------------------2-
|-------------------------------------------------------------------

|-----5-----------5---------------------7-----------------------------
|----5--5-5-5----5--5-5-5s7-7-------7-9---9-7---5-------5-----5-------
|---6-----------6-------------8---8-----------6---6-------6-----6-----
|--7-----------7----------------9-------------------7-7-----7-----7s5-
|-7-----------7-------------------------------------------------------
|---------------------------------------------------------------------

|-----0----------------------5-----7--7-----------------7-------
|---3---3-------------------5--5-5------5s7-7-------7-9---9-7---
|-4-------4-----7-9-7------6------------------8---9-----------6-
|-----------7-9-------9---7---------------------9---------------
|------------------------7--------------------------------------
|---------------------------------------------------------------

|---------------------7----10--
|-5-----5------------8----8----
|---6-----6---6-----7----7-----
|-----7-----7---7--------------
|-----------------7------------
|------------------------------

Verse 1

|-0---------------0----------0------0-----0------------0------------
|--0------------0---0-------1------2--2s3---3---------0-------------
|---1-------1-2-------2----0------2-----------0-1----1--------------
|----2--------------------2------2------------------2-------2-0---0-
|-----2------------------3------0------------------2------------2---
|------0----------------0-------------------------0-----------------

|--------------------------2-2s3--3s2--------
|-----------3-----1-------3-----------3------
|-----0---0---0-----0----2--------------2----
|---2---2-------2-----2-------------------0--
|-3------------------------------------------
|--------------------------------------------

Chorus

|-5--5----------------------7-----------------------------
|-5--5--5-5-5s7-7-------7-9---9-7---5-------5-----5-------
|-6--6------------8---8-----------6---6-------6-----6-----
|-7--7--------------9-------------------7-7-----7-----7s5-
|-7--7----------------------------------------------------
|----------------------------------------------------------

|---------------------------5---5---5-5-----------------7-------------------5-3-
|-7-8-7---7-------------------5---5-----5s7-7-------7-9---9-7---5---5---5-7---3-
|-------9---9-7-------7-9---------------------8---8-----------6---6---6-------4-
|---------------9-7-9---------------------------9-----------------------------5-
|-----------------------------------------------------------------------------5-
|-----------------------------------------------------------------------------3-

Verse 2

|-----0-------0-------0-------0---------------------------------3-2-0---0-----
|---0-------0-------0-------0---0-----0------1-----0--------2---------3---0---
|-1-----1-2-----2-1-----1-2-------2-----0------0-----0--------2-------------0-
|-----------------------------------2-----2------2-----2--2-------------------
|---------------------------------------------------------0-------------------
|---------------------------------------------------------0-------------------

|-----0-------0---0-------0---0---------------------------------
|---0---0-------0---0-------0---0------------0------1-----0-----
|-1-------1-2---------2-1----------------------0------0-----0---
|---------------------------------2-0---0--------2------2-----2-
|-------------------------------------2----3--------------------
|------------------------------------------0--------------------

|-2s3--2s3---2s3-
|----------3-----
|----------------
|----------------
|----------------
|----------------

Chorus

|-5--5----------------------7-------------5-------------
|-5--5--5-5-5s7-7-------7-9---9-7---5-------5-----5-----
|-6--6------------8---8-----------6---6-------6-----6---
|-7--7--------------9-------------------7-------7-----7-
|-7--7--------------------------------------------------
|-------------------------------------------------------

|-----7----10---12-12s15-15s17-17--- slide up
|-7s8---8-----8---------------------
|-----------------------------------
|-----------------------------------
|-----------------------------------
|-----------------------------------

|-5-5---7-5------------------------7---------------------------
|-5---5-----5--5-5-5s7-7-------7-9---9-7---5-------5-----5-----
|-6----------------------8---8-----------6---6-------6-----6---
|-7------------------------9-------------------7-7-----7-----7-
|-7------------------------------------------------------------
|--------------------------------------------------------------

|--------------------0--
|--------------------0--
|------------7-7-7-7-1--
|------------7-7-7-7-2--
|-5---4---2--5-5-5-5-2--
|-3---2---0-------------

Guitar Solo (distortion on)

|-------------------------[-let ring-------]------7---
|-------------------------------8-7-----------5---8---
|-----------------------------9-----9-7-9-----6---7---
|---------------------------9-------------9---7-------
|-3-2---3-2---7-5---7-5-6-7-------------------7-------
|-----3-----3-----5-----------------------------------

|-------------------------[-let ring-------]------7---
|-------------------------------8-7-----------5---8---
|-----------------------------9-----9-7-9-----6---7---
|---------------------------9-------------9---7-------
|-3-2---3-2---7-5---7-5-6-7-------------------7-------
|-----3-----3-----5-----------------------------------

|----------------------0----- Play the E chord behind the nut!
|-----------------------0----
|------------------------1---
|-------------------------2--
|-3-2---3-2---7-5-2-0------2-
|-----3-----3----------------

Chorus

|-----5-----7-----5----------------------------5---5--12-
|----5-----7-----5---7-8-7---7---------------5---5-------
|---6-----8-----6----------9---9-7-------7-9-------------
|--7-----9-----7-------------------9-7-9-----------------
|-7-----9-----7------------------------------------------
|--------------------------------------------------------

|----------------------------------------------------------------
|-7-9--7-9--9-10b12-12-15-15--12-15-15--12-15-15--15-12-15-17b19-
|----------------------------------------------------------------
|----------------------------------------------------------------
|----------------------------------------------------------------
|----------------------------------------------------------------

Outro

|-------------------------------------------------7---
|-------------------------------8-7-----------5---8---
|-------------------------9---9-----9-7-9-----6---7---
|-------------------------9-9-------------9---7-------
|-3-2---3-2---7-5---7-5-6-7-------------------7-------
|-----3-----3-----5-----------------------------------

|-------------------------------------------------7---
|-------------------------------8-7-----------5---8---
|-------------------------9---9-----9-7-9-----6---7---
|-------------------------9-9-------------9---7-------
|-3-2---3-2---7-5---7-5-6-7-------------------7-------
|-----3-----3-----5-----------------------------------

|-----7-------------------------------------------------------------------7---
|-8-8---8-10-12-10-12-12-15-15~~---------12-15-16-------8-7-----------5---8---
|----------------------------------12-14--------------9-----9-7-9-----6---7---
|---------------------------------------------------9-------------9---7-------
|-------------------------------------------------7-------------------7-------
|-----------------------------------------------------------------------------

|-----7-----------------------------------------------------------------------------7---
|-8-8---8-10-12-10-12-12-15-15~~-15-12-------------12-15-16-------8-7-----------5---8---
|--------------------------------------14-12-12-14--------------9-----9-7-9-----6---7---
|-------------------------------------------------------------9-------------9---7-------
|-----------------------------------------------------------7-------------------7-------
|---------------------------------------------------------------------------------------

|-----7-------------------------------------------------------------------7---
|-8-8---8-10-12-10-12-12-15-15~~---15----12-15-16-------8-7-----------5---8---
|-------------------------------------14--------------9-----9-7-9-----6---7---
|---------------------------------------------------9-------------9---7-------
|-------------------------------------------------7-------------------7-------
|-----------------------------------------------------------------------------

|-----7-----------------------------------------------------------------------------7---
|-8-8---8-10-12-10-12-12-15-15~~-15-12-------------12-15-16-------8-7-----------5---8---
|--------------------------------------14-12-12-14--------------9-----9-7-9-----6---7---
|-------------------------------------------------------------9-------------9---7-------
|-----------------------------------------------------------7-------------------7-------
|---------------------------------------------------------------------------------------

|--------------------------------
|-10s12--12-15-17-15----15-15-16-
|--------------------------------
|--------------------------------
|--------------------------------
|--------------------------------

Silent outro on clean guitar

|-0---------------0-----0-----0-----0-----0-----0-----0-----0-----0-----0-------
|--0------------0---0-----0-----0-----0-----0-----0-----0-----0-----0----0------
|---1-------1-2-------2-----2-----2-----2-----2-----2-----2-----2-----2---1-----
|----2---------------------------------------------------------------------2----
|-----2---------------------------------------------------------------------2---
|------0---------------------------------------------------------------------0--

|-----------------------------------------------------------------------------------------
|-----------------------------------------------------------------------------------------
|---------3---------4-----------5-----------6-----------7-----------8-------------9-------
|-2-2s4-4---4-4s5-5---5---5s6-6---6---6s7-7---7---7s8-8---8---8s9-9---9---9s10-10---10----
|-----------------------5-----------6-----------7-----------8-----------9--------------10-
|-----------------------------------------------------------------------------------------

|----------------------------------------------------------------------------------
|----------------------------------------------------------------------------------
|----------10----------------11-------11-------11-------11-------11----------------
|-10s11-11----11----11s12-12----12-------12-------12-------12-------12----------12-
|----------------11----------------12-------12-------12-------12-------12-10-12----
|----------------------------------------------------------------------------------

|----------------------------------------------------------------------------12------
|-------------------------------------------------------------------------12---------
|-11----------------11----------------11-------11----------------------13------------
|----12----------12----12----------12----12-------12----12s13-13s14-14---------------
|-------12-10-12----------12-10-12----------12-------12------------------------------
|------------------------------------------------------------------------------------

            
            
Suggest correction
Creating personal tab
Creating personal tab
You can edit any tab online and save it as your Personal.

You can edit, replace or remove any tab part or add personal notes – all changes will be seen only by you.

Personal tabs can be accessed anytime from any device, even offline.
Learn more »
Give kudos to tab author, rate the tab!
1 2 3 4 5
comments
print report bad tab
guest
You may want to rate the tab now too:
select rating
Wanna post a correction for this tab? Suggest correction