Oops, an error
Loading. Please wait.

This World Needs A Father ukulele

by Suede
52 views 1 this week
no commentswrite comment
1 2 3 4 5
3 more votes to show rating
add to favorites
×
Save as Personal and add changes to this tab that will be seen only by you. Learn more ›
×
You can save this tab as Personal to edit and correct it or add notes. All changes will be seen only by you. Learn more »
launch autoscroll
font size
0
reset
transpose
0
reset
simplify chords
display chords
guitar tuner
edit
Autoscroll
slow
fast
+/-
esc
set tempo
stop
Strumming
There is no strumming pattern for this song yet. and get +5 IQ
Tune down half-step

     G        Bm
hold on, he's coming
Em            C            D       C      D
through the wheels of the star machine
     G        Bm
hold on, he's coming
Em            C               D          C       D
through the tears of your shit stained dream

G
in an anthem for the world
C                  D
let him waltz you down the river
G
let him feel like boy or girl
C                D
with his sci-fi lullaby
        G                  C              D                     
let the light of the bomb shine from him tomorrow
          G                C              D
yes this world needs a father for the sorrow

                Dm      G        C     Am
so let's have one more, for the lovers
     Dm       G        C      C7
and one more, for the friends
      F       Fm      C      Am
'cos drink to you is all i can do
    F               Fm        D7
as life slips down, down the drain

hold on, he's coming
with the screen kissed spine of the past
hold on, he's coming
with the style of the wormwood star

sing an anthem for the world
sing a farewell for the river
if you feel like boy or girl
sing a sci-fi lullaby
let the light of the bomb shine from him tomorrow
yes this world needs a father for the sorrow
so let's have one more, for the lovers
and one more, for the friends
for drink to you is all i can do
as life slips down, down the drain

---14------------14--14-14-15-17-15----------21--14--14-14-15-17...-|
--------------------------------------------------------------------|
-------14-16-17--------------------14-16-17-------------------------|
--------------------------------------------------------------------|
--------------------------------------------------------------------|
--------------------------------------------------------------------|



--------------------------------------------------|
12-12-12-12-13-12-10-12-10-8---8-8---10h12p10-----|
-----------------------------9--------------------|
--------------------------------------------------|
--------------------------------------------------|
--------------------------------------------------|

---------------------------------------------10--|
12-12-12-12-13-12-10-12-10-8---8-8---10h12-------|
-----------------------------9-------------------|
-------------------------------------------------|
-------------------------------------------------|
-------------------------------------------------|


--------------------------------------------------|
12-12-12-12-13-12-10-12-10-8---8-8---10h12p10-----|
-----------------------------9--------------------|
--------------------------------------------------|
--------------------------------------------------|
--------------------------------------------------|

-------------------------------------------10----|
12-12-12-12-13-12-10-12-10-8---8-8---10h12-------| play final triplet x4
-----------------------------9-------------------|
-------------------------------------------------|
-------------------------------------------------|
-------------------------------------------------|

--------14                      14--14--15-17-15-|
13--15----  play x 3    end on  -----------------|
----------                      -----------------|
----------                      -----------------|
----------                      -----------------|
----------                      -----------------|

            
            
Suggest correction
Creating personal tab
Creating personal tab
You can edit any tab online and save it as your Personal.

You can edit, replace or remove any tab part or add personal notes – all changes will be seen only by you.

Personal tabs can be accessed anytime from any device, even offline.
Learn more »
Give kudos to tab author, rate the tab!
1 2 3 4 5
comments
print report bad tab
guest
Wanna post a correction for this tab? Suggest correction