Oops, an error
Loading. Please wait.

Under The Sun tab

version 2
version 2

Whole song

1,589 views 1 this week
no commentswrite comment
1 2 3 4 5
3 more votes to show rating
add to favorites
×
Save as Personal and add changes to this tab that will be seen only by you. Learn more ›
×
You can save this tab as Personal to edit and correct it or add notes. All changes will be seen only by you. Learn more »
launch autoscroll
font size
0
reset
how to read this tab
guitar tuner
edit
Autoscroll
slow
fast
+/-
esc
set tempo
stop
Author
After viewing as many tabs for this song, none of them have worked, because they were
ripped by the same guy. Therefore, I've been working on this song all day and finally
it out. It's not hard at all. You just right timing or else it sounds like pudding.

Drop D Tuning [DADGBE]

*--------------*
~ Hold Out
/ Slide
h Hammer On
p Pull Off
[ Palm Muting
^ Accent
*--------------*

Intro [After Acoustic]

|---------------------------------------------------------------------|
|----------------------------------------------------------------^----|
|--------------------------1-------------------------------------1----|
|--6--4--3h4-----------2h3---3--1~---6--4--3h4-----------2h3---3---1~-|
|------------1~---1--4--------------------------1~---1--4-------------|
|---------------------------------------------------------------------|

[Don't know the Verse Yet, But I do beleive it's the same as the Chorus, but clean and 
more chords]

Chorus [Distortion]

|-----------------------------------------------------------|
|-----------------------------------------------------------|
|-3--3--3---------------------------------------------------|
|-3--3--3------------4--4--4---1--1--1------------6--6--6---|
|-1--1--1--[1-1-1-1]-4--4--4---1--1--1------------4--4--4---|
|--------------------4--4--4---1--1--1--[1-1-1-1]-----------|
----------------Repeat 3 Times------------------------------|

That's all I know for now. Enjoy!

            
            
Suggest correction
Creating personal tab
Creating personal tab
You can edit any tab online and save it as your Personal.

You can edit, replace or remove any tab part or add personal notes – all changes will be seen only by you.

Personal tabs can be accessed anytime from any device, even offline.
Learn more »
Give kudos to tab author, rate the tab!
1 2 3 4 5
comments
print report bad tab
guest
You may want to rate the tab now too:
select rating
Wanna post a correction for this tab? Suggest correction