Oops, an error
Loading. Please wait.

Bouncing Off The Walls solo tab

version 1
version 1

Solo

Whole song

Interactive

1,683 views 1 this week
2 commentsread comments
1 2 3 4 5
x 4
add to favorites
×
Save as Personal and add changes to this tab that will be seen only by you. Learn more ›
×
You can save this tab as Personal to edit and correct it or add notes. All changes will be seen only by you. Learn more »
launch autoscroll
font size
0
reset
how to read this tab
guitar tuner
edit
Autoscroll
slow
fast
+/-
esc
set tempo
stop
Author
i think most of it is right..
standard tuning


------------------------------------------------------------
------------------------------------------------------------
-16-12-16-12-17--12-16-19--16-12-16-12-11-12-14-12-11-12-17b
------------------------------------------------------------
------------------------------------------------------------
------------------------------------------------------------

----------------------------------17-15\12-------------------
-17151715171517151715171517151715----------15h17-20-19-17-15-12
--------------------------------------------------------------
--------------------------------------------------------------
--------------------------------------------------------------
---------------------------------------------------------------

-----------------------------------------------------
-17-15-----------------------------------------17*let ring--
-------17-17-16-12----21~-16-17-17-16-14-14----------
-------------------14----------------------14--------
-----------------------------------------------------
-----------------------------------------------------


-Dawn
UndercoverDonut@aol.com

            
            
Suggest correction
Creating personal tab
Creating personal tab
You can edit any tab online and save it as your Personal.

You can edit, replace or remove any tab part or add personal notes – all changes will be seen only by you.

Personal tabs can be accessed anytime from any device, even offline.
Learn more »
comments
print report bad tab
2 comments total.
0 reply
blunder 507 Jan 31, 2008 03:28 AM

I think most of it is right, but this bit should change just so that its easier to navigate around the fret board and i
think that the last bit sounds like it should be
chords:

----------------------------------17-15\12-------------------
-17151715171517151715171517151715----------15h
17-20-19-17-15-12
--------------------------------------------------------------
-------------------------------------
-------------------------
--------------------------------------------------------------
-----------------------------
----------------------------------

-----------------------------------------------------
-17-15---------------------
--------------------17*let
ring--
-------17-17-16-12----21~-16-17-17-16-14-14----------
-------------------14----------------------14--------
--
---------------------------------------------------
-----------------------------------------------------
i think it
should change
to:
----------------------------------17-15\12-------15-14---------
-17151715171517151715171517151715----------15h17--
----17-15----
------------------------------------------------------------16-
----------------------------------------
-----------------------
---------------------------------------------------------------
------------------------------
---------------------------------

---------------------------------------------------------
-17-15----------------17
~----------------------------17~-
-------17-17-16-----------16/17-16/17-16-14-12/14-12-----
----------------17-14-----
x--x--x--x--x--x--x--x--x------
--------------------------14/15-14/15-14-12-10/12-10-----
----------------------------
-----------------------------

0 reply
blunder 507 Jan 31, 2008 03:32 AM

oops dint come out right i think it should
be:
-17-15\12------15-14------------------------------
----------15h17-----17-15--17-15--------------17~-
-----------
--------------16-----17-17-16----------
----------------------------------------17-14-----
---------------------------
-----------------------
--------------------------------------------------

---------------------------------
------
-----------------------17~-
-16/17-16/17-16-14-12/14-12~-----
-x--x--x--x--x--x--x--x--x-------
-14/15-14/15-14-12-10
/12-10~-----
---------------------------------

guest
You may want to rate the tab now too:
select rating
Wanna post a correction for this tab? Suggest correction