Oops, an error
Loading. Please wait.

Los Angeles tab

version 1
version 1

Whole song

Interactive

9,486 views 15 this week
3 commentsread comments
1 2 3 4 5
x 7
add to favorites
×
Save as Personal and add changes to this tab that will be seen only by you. Learn more ›
×
You can save this tab as Personal to edit and correct it or add notes. All changes will be seen only by you. Learn more »
launch autoscroll
font size
0
reset
how to read this tab
guitar tuner
edit
Autoscroll
slow
fast
+/-
esc
set tempo
stop
Author
Song:Los Angeles
Artist:Sugarcult
Tuning:Standard
Email:dukebballx4@yahoo.com


here we go...pretty simple song to play




only bass in verse until pre chorus



Pre Chorus...also what guitar 2 plays during chorus
E|-4-6~------------------------4-2~-------|
B|2-2-------------------------2-2---------|
G|----------------------------------------|
D|----------------------------------------|
A|----------------------------------------|
E|----------------------------------------|

One More Holiday         I will not celebrate

CHORUS
e|-----------------------------------------------------------------|
B|-----------------------------------------------------------------|
G|3333333366666666--------88888888-3333333366666666----------------|
D|33333333666666664444444488888888-33333333666666664444444466666666|
A|11111111444444444444444466666666-11111111444444444444444466666666|
E|----------------22222222-------------------------2222222244444444|

e---------------------------------|
B---------------------------------|
G3333333366666666--------88888888-|
D33333333666666664444444488888888-|
A11111111444444444444444466666666-|
E----------------22222222---------|


only bass in verse


CHORUS
e|----------------------------------------------------------------|
B|----------------------------------------------------------------|
G|3333333366666666--------888888883333333366666666----------------|
D|3333333366666666444444448888888833333333666666664444444466666666|
A|1111111144444444444444446666666611111111444444444444444466666666|x3
E|----------------22222222------------------------2222222244444444|


Bridge

e|-------------|
B|-------------|
G|------6------|
D|4--6--4--4---|x3
A|4--6--4--4---|
E|2--4-----2---|



CHORUS
e|-----------------------------------------------------------------|
B|-----------------------------------------------------------------|
G|3333333366666666--------888888883333333366666666-----------------|
D|3333333366666666444444448888888833333333666666664444444466666666~|
A|1111111144444444444444446666666611111111444444444444444466666666~|x4
E|----------------22222222------------------------2222222244444444~|


last time ONLY let ring









            
            
Suggest correction
Creating personal tab
Creating personal tab
You can edit any tab online and save it as your Personal.

You can edit, replace or remove any tab part or add personal notes – all changes will be seen only by you.

Personal tabs can be accessed anytime from any device, even offline.
Learn more »
comments
print report bad tab
3 comments total.
0 reply
eltyr18 176 Apr 28, 2007 11:37 PM

This is pretty good, except during the second verse where he says I wanna ****, ****, **** this up, I wanna feel, feel, feel you up, the guitarist plays

|--------------------------
|--------------------------
|----8------8/-------------
|----8------8/-------------
|----6------6/-------------
|--------------------------
**** **** **** this up

|--------------------------
|--------------------------
|----8------8/-------------
|----8------8/-------------
|----6------6/-------------
|--------------------------
feel feel feel you up

|------------------------------------------------------
|------------------------------------------------------
|------8--------8-------8-------8---------8------------
|------8--------8-------8-------8---------8------------
|------6--------6-------6-------6---------6------------
|------------------------------------------------------
enough enough enough enough in the heat of los angeles

0 reply
eltyr18 176 Apr 28, 2007 11:37 PM

let the last one ring

0 reply
eltyr18 176 Apr 28, 2007 11:37 PM

find out the timing my tab screwed up.

guest
You may want to rate the tab now too:
select rating
Wanna post a correction for this tab? Suggest correction