Oops, an error
Loading. Please wait.

Kuwentuhan chords

version 2
version 2

Whole song

1,408 views 3 this week
no commentswrite comment
1 2 3 4 5
3 more votes to show rating
add to favorites
×
Save as Personal and add changes to this tab that will be seen only by you. Learn more ›
×
You can save this tab as Personal to edit and correct it or add notes. All changes will be seen only by you. Learn more »
launch autoscroll
font size
0
reset
transpose
0
reset
simplify chords
display chords
guitar tuner
edit
Autoscroll
slow
fast
+/-
esc
set tempo
stop
Difficulty
Strumming
There is no strumming pattern for this song yet. and get +5 IQ
Kuwentuhan
tuning: standard
Intro 4x each bar except last(Feel free to improvise)
A                  F#m
E----------------   E----------------|
B----------------   B----------------|
G-2-2--1-1-------   G-2-2--1-1-------|
D-2-2--2-2-------   D-2-2--2-2-------|
A-0-0--0-0-------   A-x-x--x-x-------|
E----------------   E-2-2--2-2-------|
Bm                  E
E----------------   E----------------|
B----------------   B----------------|
G-2-2--1-1-------   G-2-2--2-2--1----|
D-2-2--2-2-------   D-2-2--2-2--2----|
A-2-2--2-2-------   A-2-2--2-2--2----|
E-x-x--x-x-------   E-0-0--0-0--0----|
*with index finger supporting the first fret note at all times.

Chord Reference:
 A(9)F#m   Bm   E
E-0---0----0---0-----|
B-2---2----3---0-----|
G-2---2----2---1-----|
D-2---0----0---2-----|
A-0---0----2---2-----|
E-----2--------0-----|

Verse 1:
Kanina pa tayo'ng magkasama
Umaga na pala,mayamaya lang ay may araw na
Kahit tayo'y pagod,buong mundo ay tulog
Ikaw at ako dere-deretsyo lang at walang paki-alam

Chord Reference:
  D  E/D C#m
E-2---4---x---|
B-3---5---5---|
G-2---4---4---|
D-0---0---x---|
A---------4---|
E-------------|

Chorus 1:
D     E/D   C#m   F#m            D
Kuwentuhan lang wala na mang masama
    E/D   A    C#m            F#m      E          D*
Mag-usap lang ibaon mo na sa limot ang lungkot yehe!

Lick Reference:
  D*                      Stop
E-------------------------------------|
B-------------------------------------|
G-6-6--4-6--4-6--4-6-7-6-4---6-6-66-7-|
D-0-0--0-0--0-0--0-0-0-0-0---0-0-00-0-|
A-------------------------------------|
E-------------------------------------|

Verse 2:
Tatawa tayo,sabay siryoso
Unting-unti ka nakikilala
Ang sarap-sarap mo palang kasama
Dati kasi tahimik ka lang palagi
Ngunit ngayong gabi parang kay rami-rami mo nang sinabi

(**Chorus 2 is slightly different, notice the chord change.-Used A before shifting to
and proceding with the normal chord pattern and added a E-D-Dm pattern before going to 
interlude)

Chorus 2:
D      E/D  C#m   F#m           D
Kuwentuhan lang wala namang masama
     E/D   A         C#m    F#m       E       D-Dm
Mag-usap lang dahil gusto kitang makilala makasama

Interlude:
F-D-G-E             (E*B*G# notes to end interlude)
Ahhh...ahhhhhh....(2X)

Verse 3:
Umaga na tulog kana
Ang himbing mo managinip ang sarap-sarap mong umidlip
Uwi na kaya ako o dito muna siguro
Samahan muna kita dahil parang ayaw kong magisa

Chorus 3:
Samahan ka wala namang masam
Kung samahan ka hangang lungkot ko'y makatulog din
D   A               D-F#m
Wohohoho...Wohohoho

Ito ay ang aking representasyon lamang ayon sa kung paano ko natutugtog ang kantang ito.
sana at maibahagi rin ng iba ang kanilang tamang areglo kung may rebisyon mang
o dagdag na impormasyong maaaring makatulong sa mga nag nanais na mapadali at mapagbuti 
kanilang reperense sa kantang ito.

Ang kawalan at ang inisyal na tala ng tab na ito ang nag obliga sa aking pagbutihin ang
areglo ng isang napakagandang kanta. Salamat na rin. Mabuhay ang Sugarfree.

Sorry tinamad na ko ayusin at I chek ung lyrics.
-kamalayan

            
            
Suggest correction
Creating personal tab
Creating personal tab
You can edit any tab online and save it as your Personal.

You can edit, replace or remove any tab part or add personal notes – all changes will be seen only by you.

Personal tabs can be accessed anytime from any device, even offline.
Learn more »
Give kudos to tab author, rate the tab!
1 2 3 4 5
comments
print report bad tab
guest
Wanna post a correction for this tab? Suggest correction