Oops, an error
Loading. Please wait.

Prom bass

version 2
version 2

Whole song

1,789 views 9 this week
no commentswrite comment
1 2 3 4 5
2 more votes to show rating
add to favorites
×
Save as Personal and add changes to this tab that will be seen only by you. Learn more ›
×
You can save this tab as Personal to edit and correct it or add notes. All changes will be seen only by you. Learn more »
launch autoscroll
font size
0
reset
guitar tuner
edit
Autoscroll
slow
fast
+/-
esc
set tempo
stop
Author
Para sa Siesta!


Intro:

Drums, 4 bars, w/ anticipation on 4th beat of 4th bar
|---|---|---|------|
|---|---|---|------|
|---|---|---|------|
|---|---|---|---/5-|

then. . .
|-------|-------|----------|-99769976-|
|----4--|----4--|-----7777-|----------|
|-5-5-5-|---5-5-|----------|----------|
|-------|-3-----|-5555-----|----------| 2x

Verse 1:
D        G         A
Nanginginig na mga kamay
|----------|----------|----------|----------|
|-44444444-|-55555555-|-77777777-|-77777777-|
|----------|----------|----------|----------|
|----------|----------|----------|----------|

D           G          A
Puso kong hindi mapalagay
|----------|----------|----------|----------|
|-44444444-|-55555555-|-77777777-|----------|
|----------|----------|----------|----------|
|----------|----------|----------|-55555555-|

D/F#  G              A
Pwede ba kitang tabihan?
|----------|----------|----------|----------|
|----------|----------|----------|----------|
|----------|----------|----------|----------|
|-22222222-|-33333333-|-55555555-|-55555555-|

D/F#          G           A
Kahit na may iba ka ng kasama
|----------|----------|----------|----------|
|----------|----------|----------|----------|
|----------|----------|----------|----------|
|-22222222-|-33333333-|-55555555-|-55555555-|

Pre-chorus:

Bm            A             E
Eto na ang gabing di malilimutan
|----------|----------|----------|---------|
|------7/9-|-7--------|-6----679-|-----7h9-|
|-----9----|----------|----------|---------|
|-7--------|----------|----------|-0-------|


Bm          A      G    A
Dahan-dahan tayong nagtinginan
|----------|----------|----------|----------|
|------7/9-|-7--------|-6--------|----------|
|-----9----|----------|----------|-----4477-|
|-7--------|-----5555-|-----4444-|-5577-----|

Chorus:
D           Em       F#m        G                  D
Parang atin ang gabi, para bang wala tayong katabi
|----------|----------|----------|---------------9--9-|
|----------|----------|----------|-------------12-12--|
|-55555555-|-77777777-|-99999999-|-10.10.10.10.-------|
|----------|----------|----------|--------------------|

            Em      F#m       G          D   Em  F#m  G
At tayo'y sumayaw na parang di na tayo bibitaw,
|-------------------------|----------|----------|---------------9--9-|
|-------------------------|----------|----------|-------------12-12--|
|-------------------------|-77777777-|-99999999-|-10.10.10.10.-------|
|-10.10.10.10.10.10.10.10-|----------|----------|--------------------| 2x

D Em C
Bibitaw
|-------------------------|----------|----------|---------------------|
|-------------------------|----------|----------|-10h12.12.10.10.9977-|
|-------------------------|-77777777-|----------|---------------------|
|-10.10.10.10.10.10.10.10-|----------|-88888888-|---------------------|

Verse 2:
D         G              A
Nalalasing sa iyong tingin
|---|---|---|---|
|-4-|-5-|-7~~~~-|
|---|---|---|---|
|---|---|---|---|

D           G               A
Di malaman-laman ang gagawin
|---|---|---|--------|
|-4-|-5-|-7-|--------|
|---|---|---|--------|
|---|---|---|-x55-x5-|

D/F#   G     A
Habang luma - lalim ang gabi
|-------|-------|-------|-------|
|-------|-------|-------|-------|
|-------|-------|-------|-------|
|-(x)22-|-(x)33-|-(x)55-|-(x)55-|

           D/F#    G          A
Ay lumalapit ang ating mga labi
|-------|-------|----------|--------------|
|-------|-------|----------|--------------|
|-------|-------|----------|--------------|
|-(x)22-|-(x)33-|-5-5-5555-|-/17.17.14.14-|

Pre-chorus:

Bm            A             E
Eto na ang gabing di malilimutan
|----------|-----------|-----------|----------|
|-999999---|-7777777---|-666666h97-|----------|
|-------99-|--------77-|-----------|----------|
|----------|-----------|-----------|-4-4-4444-|

Bm          A      G    A
Tayo’y naglakad ng dahan-dahan
|----------|-----------|----------|---77-----|
|-999999---|-7777777---|-66666666-|-99--99---|
|-------99-|--------77-|----------|-------77-|
|----------|-----------|----------|----------|

Chorus:
D           Em       F#m        G                  D
Parang atin ang gabi, para bang wala tayong katabi
|----------|----------|----------|---------------9--9-|
|----------|----------|----------|-------------12-12--|
|-55555555-|-77777777-|-99999999-|-10.10.10.10.-------|
|----------|----------|----------|--------------------|

            Em      F#m       G          D   Em  F#m  G
At tayo'y sumayaw na parang di na tayo bibitaw,
|-------------------------|----------|----------|---------------9--9-|
|-------------------------|----------|----------|-------------12-12--|
|-------------------------|-77777777-|-99999999-|-10.10.10.10.-------|
|-10.10.10.10.10.10.10.10-|----------|----------|--------------------| 2x

D   Em  F#m  G
Bibitaw
|-------------------------|----------|----------|-------------------------|
|-------------------------|----------|----------|-------------------------|
|-------------------------|-77777777-|-99999999-|-10.10.10.10.10.10.10.10-|
|-10.10.10.10.10.10.10.10-|----------|----------|-------------------------|

Bridge:
E			F         		E                       F
Matapos man ang sayaw, pangakong di ka bibitaw             . . . ahhhh-awww.
|-----|---------|-----|---------|-----|---------|---------|---------|
|-----|---------|-----|---------|-----|---------|---------|-x-77777-|
|-7---|------10-|-8---|------10-|-7---|------10-|-8-88888-|---------|
|-----|---00----|-----|---88----|-----|---00----|---------|---------|

Chorus: Drum Solo with vocals, 8 bars, with anticipation on 4th beat of 8th bar (below)

      |--------|
      |----\12-|
      |--------|
. . . |--------|


Chorus:
D           Em       F#m        G                  D
Parang atin ang gabi, para bang wala tayong katabi
|----------|----------|----------|---------------9--9-|
|----------|----------|----------|-------------12-12--|
|-55555555-|-77777777-|-99999999-|-10.10.10.10.-------|
|----------|----------|----------|--------------------|

            Em      F#m       G          D   Em  F#m  G
At tayo'y sumayaw na parang di na tayo bibitaw,
|-------------------------|----------|----------|---------------9--9-|
|-------------------------|----------|----------|-------------12-12--|
|-------------------------|-77777777-|-99999999-|-10.10.10.10.-------|
|-10.10.10.10.10.10.10.10-|----------|----------|--------------------|

D           Em       F#m        G                  D
Parang atin ang gabi, para bang wala tayong katabi
|-------------------------|----------|----------|----------|
|-------------------------|----------|----------|----------|
|-------------------------|----------|----------|----------|
|-10.10.10.10.10.10.10.10-|-00000000-|-22222222-|-33333333-|

            Em      F#m       G          D   Em  F#m  G
At tayo'y sumayaw na parang di na tayo bibitaw,
|----------|----------|----------|---------------9--9-|
|----------|----------|----------|-------------12-12--|
|-55555555-|-77777777-|-99999999-|-10.10.10.10.-------|
|----------|----------|----------|--------------------|

|-------------------------|----------|----------|----------|
|-------------------------|----------|----------|----------|
|-------------------------|----------|----------|----------|
|-10.10.10.10.10.10.10.10-|-00000000-|-22222222-|-33333333-|

Di na tayo bibitaw
|----------|----------|----------|--------------------------|
|----------|----------|----------|--------------------------|
|-55555555-|-77777777-|-99999999-|-10.10.10.10.10.10.10.10.-|
|----------|----------|----------|--------------------------|

Ending:

Improv na lang. Pwedeng puro poste ang pitik, 8th notes lahat, anuman yung ginamit na 
(tamad na akong kunin eh. He he). 16 bars yata ang ending.

Yung huling sundot:

      |----------|-----------|
      |----------|-----------|
      |-------74-|-5\-(mute)-|
. . . |----------|-----------|

            
            
Suggest correction
Creating personal tab
Creating personal tab
You can edit any tab online and save it as your Personal.

You can edit, replace or remove any tab part or add personal notes – all changes will be seen only by you.

Personal tabs can be accessed anytime from any device, even offline.
Learn more »
Give kudos to tab author, rate the tab!
1 2 3 4 5
comments
print report bad tab
guest
You may want to rate the tab now too:
select rating
Wanna post a correction for this tab? Suggest correction