Oops, an error
Loading. Please wait.
We have an official Unanswered tab made by UG professional guitarists. Check out the tab »
×
84,374 views 69 this week
12 commentsread comments
1 2 3 4 5
x 18
add to favorites
×
Save as Personal and add changes to this tab that will be seen only by you. Learn more ›
×
You can save this tab as Personal to edit and correct it or add notes. All changes will be seen only by you. Learn more »
launch autoscroll
font size
0
reset
how to read this tab
guitar tuner
edit
Autoscroll
slow
fast
+/-
esc
set tempo
stop
Tuning = 7-String Drop A (AEADGBe)

[Intro]
(Guitar 1 and 2)
e|------------------------------------------------|------------------------------------------------|
B|------------------------------------------------|------------------------------------------------|
G|------------------------------------------------|------------------------------------------------|
D|------------------------------------------------|------------------------------------------------|
A|------------------------------------------------|------------------------------------------------|
E|2-------1-------0-------2-------1-------0-------|2-------1-------0-------2-------1-------0-------|
A|2-------1-------0-------2-------1-------0-------|2-------1-------0-------2-------1-------0-------|
  PM----------------------------------------------------------------------------------------------|

e|------------------------------------------------|------------------------------------------------|
B|------------------------------------------------|------------------------------------------------|
G|------------------------------------------------|------------------------------------------------|
D|------------------------------------------------|------------------------------------------------|
A|------------------------------------------------|------------------------------------------------|
E|------------------------2-------1-------0-------|2-------1-------0-------2-------1-------0-------|
A|2-2-2-2-1-1-1-1-0-0-0-0-2-------1-------0-------|2-------1-------0-------2-------1-------0-------|
                          PM----------------------------------------------------------------------|

[Verse 1]
(Guitar 1 and 2)
e|--------------------------------|--------------------------------|
B|--------------------------------|--------------------------------|
G|--------------------------------|--------------------------------|
D|--------------------------------|--------------------------------|
A|--------------------------------|--------------------------------|
E|--------------------------------|--------6-6-6-6-6-6-6-6-6-6-6-6-|
A|1-1-1-1-0-0-0-0-1-1-1-1-2-2-2-2-|5-5-5-5-------------------------|

e|--------------------------------|--------------------------------|
B|--------------------------------|--------------------------------|
G|--------------------------------|--------------------------------|
D|--------------------------------|--------------------------------|
A|--------------------------------|--------------------------------|
E|6-6-6-6-------------------------|--------6-6-6-6-6-6-6-6-6-6-6-6-|
A|--------1-1-1-1-0-0-0-0-1-1-1-1-|2-2-2-2-------------------------|

e|--------------------------------|--------------------------------|
B|--------------------------------|--------------------------------|
G|--------------------------------|--------------------------------|
D|--------------------------------|--------------------------------|
A|--------------------------------|--------------------------------|
E|--------------------------------|--------6-6-6-6-6-6-6-6-6-6-6-6-|
A|1-1-1-1-0-0-0-0-1-1-1-1-2-2-2-2-|5-5-5-5-------------------------|

e|--------------------------------|--------------------------------|
B|--------------------------------|--------------------------------|
G|--------------------------------|--------------------------------|
D|--------------------------------|--------------------------------|
A|--------------------------------|--------------------------------|
E|6-6-6-6-1-------0-------1-------|2-------6-6-6-6-6-6-6-6-6-6-6-6-|
A|--------1-------0-------1-------|2-------------------------------|
          PM------------------------------|

(Guitar 1 and 2)
e|------------------------------------------------|------------------------------------------------|
B|------------------------------------------------|------------------------------------------------|
G|------------------------------------------------|------------------------------------------------|
D|------------------------------------------------|------------------------------------------------|
A|------------------------------------------------|------------------------------------------------|
E|2-------1-------0-------2-------1-------0-------|2-------1-------0-------2-------1-------0-------|
A|2-------1-------0-------2-------1-------0-------|2-------1-------0-------2-------1-------0-------|
  PM----------------------------------------------------------------------------------------------|

e|------------------------------------------------|------------------------------------------------|
B|------------------------------------------------|------------------------------------------------|
G|------------------------------------------------|------------------------------------------------|
D|------------------------------------------------|------------------------------------------------|
A|------------------------------------------------|------------------------------------------------|
E|------------------------2-------1-------0-------|2-------1-------0-------2-------1-------0-------|
A|2-2-2-2-1-1-1-1-0-0-0-0-2-------1-------0-------|2-------1-------0-------2-------1-------0-------|
                          PM----------------------------------------------------------------------|

[Break 1]
(Guitar 1 and 2)
e|----------------------------------------|
B|----------------------------------------|
G|----------------------------------------|
D|----------------------------------------|
A|----------------------------------------|
E|2---------------------------------------|
A|2---------------------------------------|

[Chorus 1]
(Guitar 1 and 2)
e|----------------------------------------------------------------|
B|----------------------------------------------------------------|
G|----------------------------------------------------------------|
D|----------------------------------------------------------------|
A|----------------------------------------------------------------|
E|2---2---1-------0-------1-------0-------2-------1-------0-------|
A|2---2---1-------0-------1-------0-------2-------1-------0-------|
  PM-------------------------------------------------------------|

e|----------------------------------------------------------------|
B|----------------------------------------------------------------|
G|----------------------------------------------------------------|
D|----------------------------------------------------------------|(x4)
A|----------------------------------------------------------------|
E|2---2---1-------0-------1-------0-------------------------------|
A|2---2---1-------0-------1-------0-------2-2-2-2-1-1-1-1-0-0-0-0-|
  PM-------------------------------------|

[Verse 2]
(Guitar 1)
e|--------------------------------|--------------------------------|
B|--------------------------------|--------------------------------|
G|--------------------------------|--------------------------------|
D|--------------------------------|--------------------------------|
A|--------------------------------|--------------------------------|
E|1-------0-------1-------2-------|5-------6-6-6-6-6-6-6-6-6-6-6-6-|
A|1-------0-------1-------2-------|5-------------------------------|
  PM--------------------------------------|

e|--------------------------------|--------------------------------|
B|--------------------------------|--------------------------------|
G|--------------------------------|--------------------------------|
D|--------------------------------|--------------------------------|
A|--------------------------------|--------------------------------|
E|6-6-6-6-1-------0-------1-------|2-------6-6-6-6-6-6-6-6-6-6-6-6-|
A|--------1-------0-------1-------|2-------------------------------|
          PM------------------------------|

(Guitar 2)
e|--------------------------------|--------------------------------|
B|--------------------------------|--------------------------------|
G|--------------------------------|--------------------------------|
D|--------------------------------|--------------------------------|
A|--------------------------------|--------------------------------|
E|1-------0-------1-------2-------|5-------------------------------|
A|1-------0-------1-------2-------|5-------------------------------|
  PM--------------------------------------|

e|--------------------------------|--------------------------------|
B|--------------------------------|--------------------------------|
G|--------------------------------|--------------------------------|
D|--------------------------------|--------------------------------|
A|--------------------------------|--------------------------------|
E|--------1-------0-------1-------|2-------6-6-6-6-6-6-6-6-6-6-6-6-|
A|--------1-------0-------1-------|2-------------------------------|
          PM------------------------------|

(Guitar 1 and 2)
e|--------------------------------|--------------------------------|
B|--------------------------------|--------------------------------|
G|--------------------------------|--------------------------------|
D|--------------------------------|--------------------------------|
A|--------------------------------|--------------------------------|
E|--------------------------------|--------6-6-6-6-6-6-6-6-6-6-6-6-|
A|1-1-1-1-0-0-0-0-1-1-1-1-2-2-2-2-|5-5-5-5-------------------------|

e|--------------------------------|--------------------------------|
B|--------------------------------|--------------------------------|
G|--------------------------------|--------------------------------|
D|--------------------------------|--------------------------------|(x3)
A|--------------------------------|--------------------------------|
E|6-6-6-6-------------------------|--------6-6-6-6-6-6-6-6-6-6-6-6-|
A|--------1-1-1-1-0-0-0-0-1-1-1-1-|2-2-2-2-------------------------|

                          P.H.
e|--------------------------------|--------------------------------|
B|--------------------------------|--------------------------------|
G|--------------------------------|--------------------------------|
D|--------------------------------|--------------------------------|(x4)
A|------------------------2-------|--------------------------------|
E|2-------1-------0---------------|2-------1-------0-------2-------|
A|2-------1-------0---------------|2-------1-------0-------2-------|
  PM---------------------|         PM-----------------------------|

[Chorus 2]
(Guitar 1)
e|----------------------------------------------------------------|
B|----------------------------------------------------------------|
G|----------------------------------------------------------------|
D|----------------------------------------------------------------|
A|----------------------------------------------------------------|
E|1-------0-------1-------2-------6-6-6-6-6-6-6-6-6-6-6-6-6-6-6-6-|
A|1-------0-------1-------2---------------------------------------|
  PM-----------------------------|

e|----------------------------------------------------------------|
B|----------------------------------------------------------------|
G|----------------------------------------------------------------|
D|----------------------------------------------------------------|(x4)
A|----------------------------------------------------------------|
E|6-6-6-6-1-------0-------1-------6-6-6-6-6-6-6-6-6-6-6-6-6-6-6-6-|
A|--------1-------0-------1---------------------------------------|
          PM---------------------|

(Guitar 2)
e|----------------------------------------------------------------|
B|----------------------------------------------------------------|
G|----------------------------------------------------------------|
D|----------------------------------------------------------------|
A|----------------------------------------------------------------|
E|1-------0-------1-------2---------------------------------------|
A|1-------0-------1-------2---------------------------------------|
  PM-----------------------------|

e|----------------------------------------------------------------|
B|----------------------------------------------------------------|
G|----------------------------------------------------------------|
D|----------------------------------------------------------------|(x4)
A|----------------------------------------------------------------|
E|--------1-------0-------1---------------------------------------|
A|--------1-------0-------1---------------------------------------|
          PM---------------------|

[Interlude]
(Guitar 1)
e|----------------------------------------------------------------|
B|----------------------------------------------------------------|
G|----------------------------------------------------------------|
D|----------------------------------------------------------------|
A|----------------------------------------------------------------|
E|1-------0-------1-------2-------6-6-6-6-6-6-6-6-6-6-6-6-6-6-6-6-|
A|1-------0-------1-------2---------------------------------------|
  PM-----------------------------|

e|----------------------------------------------------------------|
B|----------------------------------------------------------------|
G|----------------------------------------------------------------|
D|----------------------------------------------------------------|
A|----------------------------------------------------------------|
E|6-6-6-6-1-------0-------1---------------------------------------|
A|--------1-------0-------1---------------------------------------|
          PM---------------------|

(Guitar 2)
e|----------------------------------------------------------------|
B|----------------------------------------------------------------|
G|----------------------------------------------------------------|
D|----------------------------------------------------------------|
A|----------------------------------------------------------------|
E|1-------0-------1-------2---------------------------------------|
A|1-------0-------1-------2---------------------------------------|
  PM-----------------------------|

e|----------------------------------------------------------------|
B|----------------------------------------------------------------|
G|----------------------------------------------------------------|
D|----------------------------------------------------------------|
A|----------------------------------------------------------------|
E|--------1-------0-------1---------------------------------------|
A|--------1-------0-------1---------------------------------------|
          PM---------------------|

e|------------------------------------------------|------------------------------------------------|
B|------------------------------------------------|------------------------------------------------|
G|------------------------------------------------|------------------------------------------------|
D|------------------------------------------------|------------------------------------------------|
A|------------------------------------------------|------------------------------------------------|
E|2-------1-------0-------2-------1-------0-------|2-------1-------0-------2-------1-------0-------|
A|2-------1-------0-------2-------1-------0-------|2-------1-------0-------2-------1-------0-------|
  PM----------------------------------------------------------------------------------------------|

e|------------------------------------------------|------------------------------------------------|
B|------------------------------------------------|------------------------------------------------|
G|------------------------------------------------|------------------------------------------------|
D|------------------------------------------------|------------------------------------------------|
A|------------------------------------------------|------------------------------------------------|
E|------------------------2-------1-------0-------|2-------1-------0-------2-------1-------0-------|
A|2-2-2-2-1-1-1-1-0-0-0-0-2-------1-------0-------|2-------1-------0-------2-------1-------0-------|
                          PM----------------------------------------------------------------------|

[Break 2]
(Guitar 1 and 2)
e|--------------------------------|
B|--------------------------------|
G|--------------------------------|
D|--------------------------------|
A|--------------------------------|
E|2-------------------------------|
A|2-------------------------------|
  PM-----|

[Breakdown]
(Guitar 1 and 2)
e|--------------------------------|--------------------------------|
B|--------------------------------|--------------------------------|
G|--------------------------------|--------------------------------|
D|--------------------------------|--------------------------------|
A|--------------------------------|--------------------------------|(x4)
E|2-2-1---0---2---1---0-----------|----2---1---0---2---1---0---1---|
A|2-2-1---0---2---1---0-----------|----2---1---0---2---1---0---1---|
  PM---------------------|             PM-------------------------|

e|--------------------------------|--------------------------------|
B|--------------------------------|--------------------------------|
G|--------------------------------|--------------------------------|
D|--------------------------------|--------------------------------|
A|--------------------------------|--------------------------------|(x4)
E|0-0-0---0---0---0---0-----------|----0---0---0---0---0---0---0---|
A|1-1-1---1---1---1---1-----------|----1---1---1---1---1---1---1---|
  PM---------------------|             PM-------------------------|

[Outro]
(Guitar 1 and 2)
e|------------------------------------------------|------------------------------------------------|
B|------------------------------------------------|------------------------------------------------|
G|------------------------------------------------|------------------------------------------------|
D|------------------------------------------------|------------------------------------------------|
A|------------------------------------------------|------------------------------------------------|
E|2-------1-------0-------2-------1-------0-------|2-------1-------0-------2-------1-------0-------|
A|2-------1-------0-------2-------1-------0-------|2-------1-------0-------2-------1-------0-------|
  PM----------------------------------------------------------------------------------------------|

e|------------------------------------------------|------------------------------------------------|
B|------------------------------------------------|------------------------------------------------|
G|------------------------------------------------|------------------------------------------------|
D|------------------------------------------------|------------------------------------------------|
A|------------------------------------------------|------------------------------------------------|
E|------------------------2-------1-------0-------|2-------1-------0-------2-------1-------0-------|
A|2-2-2-2-1-1-1-1-0-0-0-0-2-------1-------0-------|2-------1-------0-------2-------1-------0-------|
                          PM----------------------------------------------------------------------|

e|--------------------------------|
B|--------------------------------|
G|--------------------------------|
D|--------------------------------|
A|--------------------------------|
E|2-------------------------------|
A|2-------------------------------|
  PM-----|

************************************

| PM    Palm Mute
| P.H.  Pinch Harmonic

************************************

            
            
Suggest correction
Creating personal tab
Creating personal tab
You can edit any tab online and save it as your Personal.

You can edit, replace or remove any tab part or add personal notes – all changes will be seen only by you.

Personal tabs can be accessed anytime from any device, even offline.
Learn more »
comments
print report bad tab
12 comments total. Showing first comments.
+3 reply
DyingToLive623 104 Aug 22, 2008 04:15 PM

Hey thanks for the credit, but I don't really deserve any.
And judging from the video, instead of tremolo picking the 1st fret on the G string, he tremolo picks the 6th fret on the A string. Same note, but I just thought I'd clear that up.

+4 reply
I<3Hobos 351 Aug 23, 2008 12:06 PM

Yea, he does that in the video,but i was to lazy to change it.

-1 reply
Gromlich 10 Jan 03, 2009 05:54 PM

Umm i have a seven string so your telling me the tuning is AAEADF#B?

Confused

guest
You may want to rate the tab now too:
select rating
Wanna post a correction for this tab? Suggest correction