Oops, an error
Loading. Please wait.

Busted Gut chords

34 views 1 this week
no commentswrite comment
1 2 3 4 5
3 more votes to show rating
add to favorites
×
Save as Personal and add changes to this tab that will be seen only by you. Learn more ›
×
You can save this tab as Personal to edit and correct it or add notes. All changes will be seen only by you. Learn more »
launch autoscroll
font size
0
reset
transpose
0
reset
display chords
guitar tuner
edit
Autoscroll
slow
fast
+/-
esc
set tempo
stop
Strumming
There is no strumming pattern for this song yet. and get +5 IQ
This is mostly played with the low D, A, and middle D strings. The first line of the Intro can be
played with the first line of the Verse, and the rest can be played by picking the chords that are 
shown below.
There are some fill in picking notes (see D chord) between what I have tabbed out, but I didn't want to 
take up space with what you can probably fill in yourself however is comfortable for you.

    D   G   A   E
D |-x---x---x---x-|
A |-x---2---0---x-|
F#|-0---1---1---x-|
D |-0---0---2---2-|
A |-0---2---0---2-|
D |-0---x---x---2-|

[Intro]
D |---------------------------------------------------------------------------|
A |---------------------------------------------------------------------------|
F#|---------------------------------------------------------------------------|
D |------2-/4---0--------2/4--0--2/4/2--0-------------------------------------|
A |---------------------------------------------------------------------------|
D |------0------0--------0-------0------0-------------------------------------|

D |---------------------------------------------------------------------------|
A |---------------------------------------------------------------------------|
F#|---------------------------------------------------------------------------|
D |----0----0h2--0---2b3--2--0------0----------0----0h2--2----2b3r2---0-----0-|
A |--0---------------0----------2------------0------0---------0----------2----|
D |------0--------------------------0------------0----------------------------|

[Verse 1]
      D
Got a busted gut, I can't feel a thing
G                          D
Busted gut, I can't feel a thing
A                                                        G 
Phone keeps ringin' but the birds stop singin, there's a reason I believe in the dreams and the visions
    E                                                    A
Are better than the screens, that scroll by fishin for
A
   Another reason to get mad

[Verse 2]
      D
But a busted gut, I can't feel a thing
G                          D
Busted gut, I can't feel a thing
A                                  G
Old man yellin' at the TV station, what the hell happened to the imagination
E                                         A         
Pickin' on pills, in extreme aggitation
A
   You got a reason to get mad

[Chorus]
       D
With a busted gut, I can't feel a thing
G                          D                            
Busted gut, I can't feel a thing
A                                     D                  
The world is a cushion, me I play the pin

[Verse 3]
      D                          
Got a busted gut, I can't feel a thing
G                          D
Busted gut, I can't feel a thing
A                                                 G      
Beauty parade and a false front of humor, there's baby in the world with a new kind of tumor
       E                                              A
And it gets so hot, man I hate it when it's humid
A
   That ain't a reason to get mad

[Chorus]
       D
With a busted gut, I can't feel a thing
G                          D                             
Busted gut, I can't feel a thing
A                                 D                       
World is a cushion, me I'm just a pin
         A                                 D                      
Yeah the world is a cushion, me I'm just a pin
         A                                 D             
Yeah the world is a cushion, me I'm just a pin
A                                  D                     
Life is a tonic, guess I'll have a gin

[Vocal solo]
D  
D  G D
A  D


************************************

| x   Dead note
| h   Hammer-on
| b   Bend
| /   Slide up

************************************

            
            
Suggest correction
Creating personal tab
Creating personal tab
You can edit any tab online and save it as your Personal.

You can edit, replace or remove any tab part or add personal notes – all changes will be seen only by you.

Personal tabs can be accessed anytime from any device, even offline.
Learn more »
Give kudos to tab author, rate the tab!
1 2 3 4 5
comments
print report bad tab
guest
You may want to rate the tab now too:
select rating
Wanna post a correction for this tab? Suggest correction