Oops, an error
Loading. Please wait.
We have an official Fat Lip tab made by UG professional guitarists. Check out the tab »
×
by Sum 41
62,967 views 30 this week
9 commentsread comments
1 2 3 4 5
x 28
add to favorites
×
Save as Personal and add changes to this tab that will be seen only by you. Learn more ›
×
You can save this tab as Personal to edit and correct it or add notes. All changes will be seen only by you. Learn more »
launch autoscroll
font size
0
reset
guitar tuner
backing track
0:00
0:00
edit
Autoscroll
slow
fast
+/-
esc
set tempo
stop
Author
ARTIST...Sum 41
SONG.....Fat Lip
TAB......BASS
TUNING...DROP D (LOW-HIGH: D A D G)
BY.......XERO
EMAIL....el_xero@yahoo.com


(:09)
G|------|
D|------|
A|------|
D|-12/0-|

G|--------------|
D|--------------|
A|------------0-|
D|-0-2-2--0-2---|(x4)

G|----------------------|
D|----------------------|
A|------2-2--0-0--0-----|
D|-2-2--------------6-4-|(x2)

G|-----------------------------------------------------------------|
D|-----------------------------------------------------------------|
A|---------------------------------4-4-4-4-4-4-4-4-0-0-0-0-0-0-0-0-|
D|-2-2-2-2-2-2-2-2-2-2-2-2-2-2-2-2---------------------------------|(x2)

G|----------------------------------------------|
D|-2-2-2-2--------------------------------------|
A|---------2-2-2-2-4-4-4-4-4-4-4-4--------------|
D|---------------------------------6-7-7--6-7-7-|(x2)

G|--------------|
D|--------------|
A|------------0-|
D|-0-2-2--0-2---|(x4)

then after the short pause...

G|----------------------|
D|----------------------|
A|------2-2--0-0--0-----|
D|-2-2--------------6-4-|(x2)

G|-----------------------------------------------------------------|
D|-----------------------------------------------------------------|
A|---------------------------------4-4-4-4-4-4-4-4-0-0-0-0-0-0-0-0-|
D|-2-2-2-2-2-2-2-2-2-2-2-2-2-2-2-2---------------------------------|(x2)

G|----------------------------------------------|
D|-2-2-2-2--------------------------------------|
A|---------2-2-2-2-4-4-4-4-4-4-4-4--------------|
D|---------------------------------6-7-7--6-7-7-|(x2)

G|-------------------------------------------------|
D|-------------------------------------------------|
A|------------------------0------------------------|
D|-2-2--2-2--2--2-2--2-2-----2-2--2-2--2--2-2--2-2-|

then rest (4 measures)...

G|------------------------------------------------|
D|------------------------------------------------|
A|----------2-2--4-4--0-2-4------2-2--4-4---------|
D|-0h4-2-2------------------2-2--------------12/0-|

G|--------------|
D|--------------|
A|------------0-|
D|-0-2-2--0-2---|(x2)

pause, then...

G|------|
D|------|
A|------|
D|-12/0-|

G|----------------------------------------------------|
D|----------------------------------------------------|
A|------------0-----------------------0-------------0-|
D|-0-2-2--0-2----0-2-2--0-2--0-2--0-2----0-2-2--0-2---|

G|---------------------------------------------------------------------|
D|---------------------------------------------------------------------|
A|---------------------------------------------------------------------|
D|-12/-0-0-0-0-0-0-0-0-0-0-0-0-0-0-0-0-0-0-0-0-0-0-0-0-0-0-0-0-0-0-0-0-|

G|----------------------------------------------|
D|-2-2-2-2--------------------------------------|
A|---------2-2-2-2-4-4-4-4-4-4-4-4--------------|
D|---------------------------------6-7-7--6-7-7-|(x2)

G|-----------------------------------------------------------------|
D|-----------------------------------------------------------------|
A|-7-7-5-5-3-3-2-2-----------------5-5-7-7-3-3-2-2-----------------|
D|-----------------6-6-7-7-6-6-7-7-----------------6-6-7-7-6-6-7-7-|

G|--------------|
D|--------------|
A|------------0-|
D|-0-2-2--0-2---|(x2)

G|----------|
D|----------|
A|----------|
D|-2-2--2-2-|



************************************

| /  Slide up
| h  Hammer-on

************************************

            
            
Suggest correction
Creating personal tab
Creating personal tab
You can edit any tab online and save it as your Personal.

You can edit, replace or remove any tab part or add personal notes – all changes will be seen only by you.

Personal tabs can be accessed anytime from any device, even offline.
Learn more »
comments
print report bad tab
9 comments total. Showing first comments.
+1 reply
Tijmen 50 Dec 25, 2003 07:00 PM

I gave you a five simply because this tab is way better than the others, its probably worth 3 1/2 stars. Good effort, but I wonder how you play some bits in 'your version'.

+2 reply
repsac_hoppus 10 Mar 03, 2006 07:00 PM

ELMO KNOWS WHERE U LIVE!!!!!

-1 reply
gdrocks2230 347 Jan 09, 2007 09:30 AM

hey... the tab sounds pretty good. i'm not real sure about that last chorus though... and just a little note... at the end, you play through that riff 4 times, not two, before the last four E's you play. but it sounds good to me. awesome job.

guest
You may want to rate the tab now too:
select rating
Wanna post a correction for this tab? Suggest correction