Oops, an error
Loading. Please wait.
6,946 views 1 this week
17 commentsread comments
1 2 3 4 5
x 7
add to favorites
×
Save as Personal and add changes to this tab that will be seen only by you. Learn more ›
×
You can save this tab as Personal to edit and correct it or add notes. All changes will be seen only by you. Learn more »
launch autoscroll
font size
0
reset
how to read this tab
guitar tuner
backing track
0:00
0:00
edit
Autoscroll
slow
fast
+/-
esc
set tempo
stop
Author
This Solo is tapped,even though nobody thinks so...Try it!

   T   P H   T   P H   T   P H   T   P H    S   S
e|----------------------------------------------------------
B|-10-9-5-9--10-9-5-9--12-9-5-9--12-9-5-9----------7--------
G|-----------------------------------------8/9-8/9----------
D|----------------------------------------------------------
A|----------------------------------------------------------
E|----------------------------------------------------------
                               1st Ending   2nd Ending
    T    T    T    T   T   T     T    T        S 
e|----------------------------(----------)-(-12/14-12-)-----
B|-9-0-10-0-12-0-10-0-9-0-7-0-(-9-0-10-0-)-(----------)----
G|----------------------------(----------)-(----------)----
D|----------------------------(----------)-(----------)----
A|----------------------------(----------)-(----------)----
E|----------------------------(----------)-(----------)----

            
            
Suggest correction
Creating personal tab
Creating personal tab
You can edit any tab online and save it as your Personal.

You can edit, replace or remove any tab part or add personal notes – all changes will be seen only by you.

Personal tabs can be accessed anytime from any device, even offline.
Learn more »
comments
print report bad tab
17 comments total. Showing first comments.
0 reply
tza 3,422 Feb 22, 2002 07:00 PM

fuck.......this solo is NOT tapped.

0 reply
sumpunk_41 0 Mar 18, 2002 07:00 PM

you dumbass, its not fucking tapped..........
shit

0 reply
Sam 35 Mar 19, 2002 07:00 PM

OK you srewups if you don't want to tap, then don't, play it like this (The same notes!):
Play this 2 times
p p
e|-5-4-0------------
B|------------------
G|------------------
D|------------------
A|------------------
E|------------------

guest
You may want to rate the tab now too:
select rating
Wanna post a correction for this tab? Suggest correction