Oops, an error
Loading. Please wait.
We have an official In Too Deep tab made by UG professional guitarists. Check out the tab »
×
by Sum 41
6,806 views 351 this week
1 commentread comment
1 2 3 4 5
x 4
add to favorites
×
Save as Personal and add changes to this tab that will be seen only by you. Learn more ›
×
You can save this tab as Personal to edit and correct it or add notes. All changes will be seen only by you. Learn more »
launch autoscroll
font size
0
reset
how to read this tab
guitar tuner
backing track
0:00
0:00
edit
Autoscroll
slow
fast
+/-
esc
set tempo
stop
Author
Difficulty
Sum 41
In Too Deep [live]
This is tab also could be used for your band.
All Guitars tuned 1 half step down [normal Sum 41 live playing]

Ok I totally love this song, its a classic. And I want you all to play this classic just
our Fav. Punk Rockers. Now when Sum 41 plays live they tune their guitars down 1 half
but this tab can be used for play it like they do on the CD. NOTE: performances vary
parts may be different. ALSO Chord Forms change from time to time EXAMPLE: D5 (xx023x, x577xx)

Guitar 1 (Eb Ab Db Gb Bb Eb): -Deryck
Guitar 2 (Eb Ab Db Gb Bb Eb): -Dave

Intro/Verse: Clean guitar with maybe a little Overdrive, it has a nice twangy sound.
Guitar 2 plays his part of the intro while Deryck just sings
Guitar 1
e|------------------|-----------------|
B|------------------|-----------------|
G|------------------|-----------------|
D|------------------|-----------------|
A|------------------|-----------------|
E|------------------|-----------------|
Guitar 2
e|------------------|-----------------|
B|------------------|-----------------|
G|------------------|-----------------|
D|----------6-7-9-7-|---------------6-|
A|----7---7---------|-0--00-0-6-7-9---|
E|--0---0-----------|-----------------|x4
PM        * * *       *  ** * * *

Pre Chorus: Clean guitar (just strum) Deryck cant look like hes doing nothing so he 
strumming
Guitar 1-
e|--------------------------------|
B|--------------------------------|
G|--1-1-1-1-1-1-1--2-2-2-2-2-2-2--|
D|--2-2-2-2-2-2-2--2-2-2-2-2-2-2--|
A|--2-2-2-2-2-2-2--0-0-0-0-0-0-0--|
E|--0-0-0-0-0-0-0-----------------|
Guitar 2                              Variation on Pre Verse
e|--------------------------------|  |-------------------------|
B|--9-9-9-9-9-9-9--5-5-5-5-5-5-5--|  |-9--9--9---5--5--10--10--|
G|--9-9-9-9-9-9-9--6-6-6-6-6-6-6--|  |-9--9--9---6--6---9--9---|
D|--9-9-9-9-9-9-9--7-7-7-7-7-7-7--|  |-9--9--9---7--7--11--11--|
A|--------------------------------|  |-------------------------|
E|--------------------------------|  |-------------------------|

Guitar 1           Distortion on
e|----------------|----------------|
B|----------------|----------------|
G|----------------|-2-2-2-2-2-2-2--|
D|--2-2-2-2-2-2-2-|-2-2-2-2-2-2-2--|
A|--2-2-2-2-2-2-2-|-0-0-0-0-0-0-0--|
E|--0-0-0-0-0-0-0-|----------------|
Guitar 2            * *                  Variation on Measure One
e|----------------|----------------|    |----------|
B|--9-9-9-9-9-9-9-|----------------|    |-9---9--9-|
G|--9-9-9-9-9-9-9-|-2-2-2-2-2-2-2--|    |-9---9--9-|
D|--9-9-9-9-9-9-9-|-2-2-2-2-2-2-2--|    |-9---9--9-|
A|----------------|-0-0-0-0-0-0-0--|    |----------|
E|----------------|----------------|    |----------|
PM                  * *

Chorus: Both Guitars start playing. I Found it a bit hard to sing and play and getting
right notes. But after practice it gets easier
Guitar 1
e|------------------|-----------------|-----------------|-----------------|
B|------------------|-----------------|-----------------|-----------------|
G|----------2-2-2-2-|---------2-2-2-2-|---------2-2-2-2-|---------2-2-2-2-|
D|--2-2-2-2-2-2-2-2-|-2-2-2-2-2-2-2-2-|-2-2-2-2-2-2-2-2-|-2-2-2-2-2-2-2-2-|
A|--2-2-2-2-0-0-0-0-|-2-2-2-2-0-0-0-0-|-2-2-2-2-0-0-0-0-|-2-2-2-2-0-0-0-0-|
E|--0-0-0-0---------|-0-0-0-0---------|-0-0-0-0---------|-0-0-0-0---------|
Guitar 2
e|------------------|-----------------|-----------------|-----------------|
B|------------------|-----------------|-----------------|-----------------|
G|----------2-2-2-2-|---------2-2-2-2-|---------2-2-2-2-|---------2-2-2-2-|
D|--2-2-2-2-2-2-2-2-|-2-2-2-2-2-2-2-2-|-2-2-2-2-2-2-2-2-|-2-2-2-2-2-2-2-2-|
A|--2-2-2-2-0-0-0-0-|-2-2-2-2-0-0-0-0-|-2-2-2-2-0-0-0-0-|-2-2-2-2-0-0-0-0-|
E|--0-0-0-0---------|-0-0-0-0---------|-0-0-0-0---------|-0-0-0-0---------|

Guitar 1
e|------------------|-----------------|-----------------|
B|------------------|-----------------|-----------------|
G|----------2-2-2-2-|---------2-2-2-2-|---------2-2-2-2-|
D|--2-2-2-2-2-2-2-2-|-2-2-2-2-2-2-2-2-|-2-2-2-2-2-2-2-2-|
A|--2-2-2-2-0-0-0-0-|-2-2-2-2-0-0-0-0-|-2-2-2-2-0-0-0-0-|
E|--0-0-0-0---------|-0-0-0-0---------|-0-0-0-0---------|
Guitar 2
e|------------------|-----------------|-----------------|
B|------------------|-----------------|-----------------|
G|----------2-2-2-2-|---------2-2-2-2-|---------2-2-2-2-|
D|--2-2-2-2-2-2-2-2-|-2-2-2-2-2-2-2-2-|-2-2-2-2-2-2-2-2-|
A|--2-2-2-2-0-0-0-0-|-2-2-2-2-0-0-0-0-|-2-2-2-2-0-0-0-0-|
E|--0-0-0-0---------|-0-0-0-0---------|-0-0-0-0---------|

Guitar 1
E|---------------------------|
B|---------------------------|
G|--9-9-9-9-7-7-7-7----------|
D|--9-9-9-9-7-7-7-7-7-7-7-7--|
A|--7-7-7-7-5-5-5-5-7-7-7-7--|
E|------------------5-5-5-5--|
Guitar 2      Variation, Deryck or Dave sometimes plays, doesnt matter who
E|---------------------------|  |-0-0-0-0------------------|
B|---------------------------|  |-0-0-0-0-3-3-3-3----------|
G|--9-9-9-9-7-7-7-7----------|  |-x-x-x-x-2-2-2-2-2-2-2-2--|
D|--9-9-9-9-7-7-7-7-7-7-7-7--|  |-2-2-2-2-0-0-0-0-2-2-2-2--|
A|--7-7-7-7-5-5-5-5-7-7-7-7--|  |-2-2-2-2---------0-0-0-0--|
E|------------------5-5-5-5--|  |-0-0-0-0------------------|

Interlude:
Guitar 1
e|------------------| |-----------------|
B|o----------------o| |o---------------o|
G|-------9----------| |------9----------|
D|--2-2--x--7-7-7-7-| |-2-2--x--7-7-7-7-|
A|o-2-2--7--7-7-7-7o| |o2-2--7--7-7-7-7o|
E|--0-0-----5-5-4-5-| |-0-0-----5-5-4-5-|
Guitar 2: It looks like Dave it going farther up the neck but cant be heard over Derycks
so hes playing this
e|------------------| |-----------------|
B|o----------------o| |o---------------o|
G|-------9----------| |------13---------|
D|--2-2--x--7-7-7-7-| |-2-2--x--7-7-7-7-|
A|o-2-2--7--7-7-7-7o| |o2-2--11-7-7-7-7o|
E|--0-0-----5-5-4-5-| |-0-0-----5-5-4-5-|

Verse II: Sometimes Deryck plays this as well but usually its just Dave. Deryck is too
being a frontman
Guitar 1
e|------------------|-----------------|
B|------------------|-----------------|
G|------------------|-----------------|
D|------------------|-----------------|
A|------------------|-----------------|
E|------------------|-----------------|
Guitar 2
e|--------------|---------------------|
B|--------------|---------------------|
G|--------------|---------------------|
D|--2-2---6-7-7-|-7/2-2--6-7-7--6-7-7-|
A|--2-2---6-7-7-|-7/2-2--6-7-7--6-7-7-|
E|--0-0---4-5-5-|-5/0-0--4-5-5--4-5-5-|

Pre Chorus-
Same goes with this, Deryck Sometimes plays this, sometimes doesn't
Guitar 1
e|--------------------------------|----------------|----------------|
B|--------------------------------|----------------|----------------|
G|-----------------2-2-2-2-2-2-2--|----------------|-2-2-2-2-2-2-2--|
D|--2-2-2-2-2-2-2--2-2-2-2-2-2-2--|--2-2-2-2-2-2-2-|-2-2-2-2-2-2-2--|
A|--2-2-2-2-2-2-2--0-0-0-0-0-0-0--|--2-2-2-2-2-2-2-|-0-0-0-0-0-0-0--|
E|--0-0-0-0-0-0-0-----------------|--0-0-0-0-0-0-0-|----------------|
 PM   * * * * * *    * * * * * *     * * * * * *
Guitar 2
e|--------------------------------|----------------|----------------|
B|--------------------------------|----------------|----------------|
G|-----------------2-2-2-2-2-2-2--|----------------|-2-2-2-2-2-2-2--|
D|--2-2-2-2-2-2-2--2-2-2-2-2-2-2--|--2-2-2-2-2-2-2-|-2-2-2-2-2-2-2--|
A|--2-2-2-2-2-2-2--0-0-0-0-0-0-0--|--2-2-2-2-2-2-2-|-0-0-0-0-0-0-0--|
E|--0-0-0-0-0-0-0-----------------|--0-0-0-0-0-0-0-|----------------|
 PM   * * * * * *    * * * * * *     * * * * * *

Chorus
Guitar 1
e|------------------|-----------------|-----------------|-----------------|
B|------------------|-----------------|-----------------|-----------------|
G|----------2-2-2-2-|---------2-2-2-2-|---------2-2-2-2-|---------2-2-2-2-|
D|--2-2-2-2-2-2-2-2-|-2-2-2-2-2-2-2-2-|-2-2-2-2-2-2-2-2-|-2-2-2-2-2-2-2-2-|
A|--2-2-2-2-0-0-0-0-|-2-2-2-2-0-0-0-0-|-2-2-2-2-0-0-0-0-|-2-2-2-2-0-0-0-0-|
E|--0-0-0-0---------|-0-0-0-0---------|-0-0-0-0---------|-0-0-0-0---------|
Guitar 2
e|------------------|-----------------|-----------------|-----------------|
B|------------------|-----------------|-----------------|-----------------|
G|----------2-2-2-2-|---------2-2-2-2-|---------2-2-2-2-|---------2-2-2-2-|
D|--2-2-2-2-2-2-2-2-|-2-2-2-2-2-2-2-2-|-2-2-2-2-2-2-2-2-|-2-2-2-2-2-2-2-2-|
A|--2-2-2-2-0-0-0-0-|-2-2-2-2-0-0-0-0-|-2-2-2-2-0-0-0-0-|-2-2-2-2-0-0-0-0-|
E|--0-0-0-0---------|-0-0-0-0---------|-0-0-0-0---------|-0-0-0-0---------|

Guitar 1
e|------------------|-----------------|-----------------|
B|------------------|-----------------|-----------------|
G|----------2-2-2-2-|---------2-2-2-2-|---------2-2-2-2-|
D|--2-2-2-2-2-2-2-2-|-2-2-2-2-2-2-2-2-|-2-2-2-2-2-2-2-2-|
A|--2-2-2-2-0-0-0-0-|-2-2-2-2-0-0-0-0-|-2-2-2-2-0-0-0-0-|
E|--0-0-0-0---------|-0-0-0-0---------|-0-0-0-0---------|
Guitar 2
e|------------------|-----------------|-----------------|
B|------------------|-----------------|-----------------|
G|----------2-2-2-2-|---------2-2-2-2-|---------2-2-2-2-|
D|--2-2-2-2-2-2-2-2-|-2-2-2-2-2-2-2-2-|-2-2-2-2-2-2-2-2-|
A|--2-2-2-2-0-0-0-0-|-2-2-2-2-0-0-0-0-|-2-2-2-2-0-0-0-0-|
E|--0-0-0-0---------|-0-0-0-0---------|-0-0-0-0---------|

Guitar 1
E|---------------------------|
B|---------------------------|
G|--9-9-9-9-7-7-7-7----------|
D|--9-9-9-9-7-7-7-7-7-7-7-7--|
A|--7-7-7-7-5-5-5-5-7-7-7-7--|
E|------------------5-5-5-5--| x2
Guitar 1
E|---------------------------|
B|---------------------------|
G|--9-9-9-9-7-7-7-7----------|
D|--9-9-9-9-7-7-7-7-7-7-7-7--|
A|--7-7-7-7-5-5-5-5-7-7-7-7--|
E|------------------5-5-5-5--| x2


Interlude 2:
Guitar 1
e|-----------|----------|     |-------------|
B|o----------|---------o|     |-------------|
G|-----------|----------|     |-------------|
D|-----------|----------|     |-x-x-x-x-x-x-|
A|o----------|---------o|     |-x-x-x-x-x-x-|
E|-----------|----------|     |-x-x-x-x-x-x-| Muted A5 Powerchord
Guitar 2
e|-----------|----------|
B|o----------|---------o|
G|-----------|----------|
D|-----------|----------|
A|o-------7v-|-------7vo|
E|--0-0-0----|-0-0-0----|x2

Solo:  NOW HERE COMES THE DEBATE. To TAp or NOT TO TAP?! When starting out, the Sums
were new to Touring and they just played what was recorded and even messed up a few times
too deep live in london]. Dave wasn't known was the shredder hes known as today.  So he 
the solo with a pick [in too deep live in London and SNL] But during the Eras of
This Look Infected and Chuck he taps it [it is possible for those none believers] and 
improvises on it [something i wont tab].  I'm gonna tab it as if it were Tapped

Guitar 1: Deryck and Cone JUMP!
e|--------------|-------------|-----------|
B|--------------|-------------|-----------|
G|--------------|-------------|-----------|
D|--2-2-2-2-2---|-------------|-4-4-4-4-4-|
A|--2-2-2-2-2---|-------------|-4-4-4-4-4-|
E|--0-0-0-0-0---|-------------|-2-2-2-2-2-|
Guitar 2:
   Tap           TAP         Hammer on HARD or pick it
E|-T5p4p0T5p4p0-|T7p5p0T7p5p0-|-----------|
B|--------------|-------------|-4h5-4h5/7-|
G|--------------|-------------|-----------|
D|--------------|-------------|-----------|
A|--------------|-------------|-----------|
E|--------------|-------------|-----------|

Guitar 1
e|------------------------------------------------|
B|------------------------------------------------|
G|--7-7----7-7---7--------------------------------|
D|--7-7----7-7---7------------7-7--7-7---7---7-6--|
A|--5-5----5-5---5------------7-7--7-7---7---7-6--|
E|----------------------------5-5--5-5---5---5-4--|
Guitar 2
    Hammer on HARD or pick I
[its hard to which from tapping to picking so quickly though]
E|------------------------------------------------|
B|--0h9p0-h10p0-h12p0-h10p0-h9p0-h7p0-h9p0--h10p0-|
G|------------------------------------------------|
D|------------------------------------------------|
A|------------------------------------------------|
E|------------------------------------------------|

Guitar 1:
e|--------------|-------------|-----------|
B|--------------|-------------|-----------|
G|--------------|-------------|-----------|
D|--2-2-2-2-2---|-------------|-4-4-4-4-4-|
A|--2-2-2-2-2---|-------------|-4-4-4-4-4-|
E|--0-0-0-0-0---|-------------|-2-2-2-2-2-|
Guitar 2:
   Tap           TAP
E|-T5p4p0T5p4p0-|T7p5p0T7p5p0-|-----------|
B|--------------|-------------|-4h5-4h5/7-|
G|--------------|-------------|-----------|
D|--------------|-------------|-----------|
A|--------------|-------------|-----------|
E|--------------|-------------|-----------|

Guitar 1
E|-----------------------------------------------------|
B|-----------------------------------------------------|
G|--7-7----7-7----7------------------------------------|
D|--7-7----7-7----7------------7-7----7-7---7---6------|
A|--5-5----5-5----5------------7-7----7-7---7---6------|
E|-----------------------------5-5----5-5---5---4------|
Guitar 2
    Hammer on HARD or pick I
E|-----------------------------------------12b14r12~~~-----|
B|-h9-0p-h10-0p-h12-0p-h10-0p-h9-0p-h10-0p-----------------|
G|---------------------------------------------------------|
D|---------------------------------------------------------|
A|---------------------------------------------------------|
E|---------------------------------------------------------|
                  Variation    E|--------------------------|
                  on ending of B|-17B19R17-|
                  solo         G|----------|


Outro Verse:
Guitar 1
E|-----------|------------|
B|O----------|-----------O|
G|-----------|------------|
D|--2-2--4-4-|--7-7--9-9--|
A|O-2-2--4-4-|--7-7--9-9-O|
E|--0-0--2-2-|--5-5--7-7--|
Guitar 2 still sustains last note on solo and sometimes improvises

Then
Guitar 1
E|---------------------------------------|
B|o-------------------------------------o|
G|--------------------2-2------4-4-------|
D|-2-2------4-4-------2-2------4-4-------|
A|o2-2------4-4-------0-0------2-2------o|
E|-0-0------2-2--------------------------|
Guitar 2
E|---------------------------------------|
B|o-------------------------------------o|
G|-----9\8/9----9\8/9-----9\8/9----9\8/9-|
D|-----x-x-x----x-x-x-----x-x-x----x-x---|
A|o----7\6/7----7\6/7-----7\6/7----7\6/7o|
E|---------------------------------------|

Guitar 1 & 2 [Faster]
E|-----------------------|---------------------------------------|
B|-----------------------|---------------------------------------|
G|--------------2-2-4-4--|---------------------------------------|
D|------2-2-4-4-2-2-4-4--|-2-2--4-4--7:--xxxxxxxxxxxxxxxxxxxxxxx-|
A|------2-2-4-4-0-0-2-2--|-2-2--4-4--7:--xxxxxxxxxxxxxxxxxxxxxxx-|
E|-12\--0-0-2-2----------|-0-0--2-2--5:--xxxxxxxxxxxxxxxxxxxxxxx-|

[On Album version Dave then switches to this:]
E|------------------------------------------------|
B|o-----------------------------------------------|
G|-----11\13/11----11\13/11----11\13/11--11\13/11-|
D|-----x---x--x----x---x--x-----x-x--x----x-x---x-|
A|o-----9\11/-9----9\11/-9------9\11/9----9\11/-9-|
E|------------------------------------------------|

Repeat 2nd Chorus {on album version they play Interlude riffs but extended]

Outro: REPEAT AS NEEDED
Guitar 1
E|--0-0-0-0------------------|
B|--0-0-0-0-3-3-3-3----------|
G|--x-x-x-x-2-2-2-2-2-2-2-2--|
D|--2-2-2-2-0-0-0-0-2-2-2-2--|
A|--2-2-2-2-0-0-0-0-0-0-0-0--|
E|--0-0-0-0------------------|
Guitar 2
E|---------------------------|
B|---------------------------|
G|--9-9-9-9-7-7-7-7----------|
D|--9-9-9-9-7-7-7-7-7-7-7-7--|
A|--7-7-7-7-5-5-5-5-7-7-7-7--|
E|------------------5-5-5-5--|

Outro Riff Continued [still repeat as needed]
    E5      D5      A5     C
E|-0-0-0-0---------------------------|
B|o0-0-0-0-3-3-3-3---------1-1-1-1--o|
G|-x-x-x-x-2-2-2-2-2-2-2-2/0-0-0-0---|
D|-2-2-2-2-0-0-0-0-2-2-2-2/2-2-2-2---|
A|o2-2-2-2-0-0-0-0-0-0-0-0/3-3-3-3--o|
E|-0-0-0-0---------------------------|
   Variation
E|----------------------------------|
B|----------------------------------|
G|-9-9-9-9-7-7-7-7------------------|
D|-9-9-9-9-7-7-7-7-7-7-7-7-10101010-|
A|-7-7-7-7-5-5-5-5-7-7-7-7-10101010-|
E|-----------------5-5-5-5--8-8-8-8-|

Guitar 2 riff:
  E5        D5           A5        C5
|----------------------|-----------------------|
|-9-10-9-10-12-10-9-10-|-9-10-9-10--9----------|
|-9--9-9--9--9--9-9--9-|-9--9-9--9--9-11--9-11-|
|----------------------|--------------11--9-11-|
|----------------------|-----------------------|
|----------------------|-----------------------|
*I'm not even gonna try to line this up so i'll use chord names instead

END. this was a lot of work but its worth it

            
            
Suggest correction
Creating personal tab
Creating personal tab
You can edit any tab online and save it as your Personal.

You can edit, replace or remove any tab part or add personal notes – all changes will be seen only by you.

Personal tabs can be accessed anytime from any device, even offline.
Learn more »
comments
print report bad tab
1 comment total.
-1 reply
seakfind 10 May 18, 2008 08:44 AM

i went pee in my ouw cerial today

guest
You may want to rate the tab now too:
select rating
Wanna post a correction for this tab? Suggest correction