Oops, an error
Loading. Please wait.

Machine Gun ukulele

version 1
version 1

Whole song

Interactive

by Sum 41
49 views 1 this week
no commentswrite comment
1 2 3 4 5
3 more votes to show rating
add to favorites
×
Save as Personal and add changes to this tab that will be seen only by you. Learn more ›
×
You can save this tab as Personal to edit and correct it or add notes. All changes will be seen only by you. Learn more »
launch autoscroll
font size
0
reset
transpose
0
reset
display chords
guitar tuner
edit
Autoscroll
slow
fast
+/-
esc
set tempo
stop
Strumming
There is no strumming pattern for this song yet. and get +5 IQ
Sum 41
Machine Gun
Half Hour Power
2000 Aquarius Records
Submitted by: paramore_fans@yahoo.com

Key: G#

Tuning: Standard EADGBe

Chords used:
G# -   466544
F# -   244322
Fm -   133111
C# -   x46664
Eb -   x68886
Bbm -  x13211
G -    320033


Intro: G#-F#-Fm-C# x3, G#


Verse 1:
G#
  And I'm up and I 
F#
don't know why
      C#
But I guess that's 
         G#
all that counts
G#
  Looking around as 
    F#
I'm holding my head
        C#            G#
And I'm in somebody's house
G#
  The sun it hits like
  F#
a punch in the face
       C#                 G#
With a headache I can't ignore
G#             F#
  Seems almost every weekend
   C#               G#
my bed is someone's floor


Chorus 1:
       F#      Fm        G# G# G
And so I can't keep this up
F#     Fm   G#   F#
I have had enough


Interlude: G#-F#-Fm-C# x2


Verse 2:
G#
Eating cold pizza on 
    F#
the side of the curb
         C#
To cover up my morning
          G#
breath of gin
G#
  Something doesn't seem
   F#
to sit with me right
     C#
It's going out 
                G#
the way it went in


(Repeat Chorus 1)


Chorus 2:
      C#               Eb
Cause you can count me out
          G#
I'm on to you
      C#               Eb
Cause you can count me out
             Bbm
I'm tired of leaving
     G#            F#
my embarassments behind


Guitar Solo: G#-F#-Fm-C# x4

e|-------------------------------------------------
B|--10/14--13-14-13-14-16-14-----------------13----
G|---------------------------13--11-13-11-13----13-
D|-------------------------------------------------
A|-------------------------------------------------
E|-------------------------------------------------

e|--------------------------13-------------------
B|-14-13-14-13-14-13-14-16-----16-14-13-14-13----
G|--------------------------------------------15-
D|-----------------------------------------------
A|-----------------------------------------------
E|-----------------------------------------------

e|---------------------------------------------
B|-------------14-13-----------------14-13-----
G|-13-11-13-11-------13--13-11-13-11-------13--
D|---------------------------------------------
A|---------------------------------------------
E|---------------------------------------------
                             
e|-----------------------11-13-11--------------
B|-------------14-13--------------14-13--------
G|-13-11-13-11-------13-----------------15-13--
D|---------------------------------------------
A|---------------------------------------------
E|---------------------------------------------


Bass Solo: G#-F#-C#-- x4


Bridge:
G#  F#       C#           G#    F#       C#
na, na na na na, na na na na na na na na na
G#  F#       C#           G#    F#       C#
na, na na na na, na na na na na na na na na
G#  F#       C#           G#    F#       C#
na, na na na na, na na na na na na na na na


Breakdown: (press the keys fast!!!) F#-Fm-F#-G# x10


Outro: G#-F#-Fm-C# x4, G#


            
            
Suggest correction
Creating personal tab
Creating personal tab
You can edit any tab online and save it as your Personal.

You can edit, replace or remove any tab part or add personal notes – all changes will be seen only by you.

Personal tabs can be accessed anytime from any device, even offline.
Learn more »
Give kudos to tab author, rate the tab!
1 2 3 4 5
comments
print report bad tab
guest
Wanna post a correction for this tab? Suggest correction