Oops, an error
Loading. Please wait.
We have an official Makes No Difference tab made by UG professional guitarists. Check out the tab »
×
by Sum 41
12,363 views 6 this week
10 commentsread comments
1 2 3 4 5
x 13
add to favorites
×
Save as Personal and add changes to this tab that will be seen only by you. Learn more ›
×
You can save this tab as Personal to edit and correct it or add notes. All changes will be seen only by you. Learn more »
launch autoscroll
font size
0
reset
how to read this tab
guitar tuner
edit
Autoscroll
slow
fast
+/-
esc
set tempo
stop
Author
Sum 41 : Makes No Difference

Tabbed by edbert

this is a revised tab, it is mostly accurate and easy to play
guitar 2 may be off, so corrections are welcome
in case you don't get it:
e-mail: mac3214@earthlink.net
AOL IM: mac02546

h- hammer on
p- pull off
/or\- slide
p.m.**- palm mute
 
Intro
E|--------------------------------------------------------|
B|--------------------------------------------------------|
G|-8-x----------------------------------------------------|
D|-8-x-6h8--888-xx--10-x--10------------------------------|
A|-6-x------888-xx--10-x--8h10-11-11p10-------------------|
E|----------666-xx--8--x----------------------------------|

    x2

    Gtr 2
e|----------------------------------------------------------------------|
b|--8-8-8-x-8-8-8--8-8-8-8-8-8-8 8-8--8-8-8-x-8-8-8--8-8-8-8-8-8-6-6-8--|
g|--8-8-8-x-8-8-8--8-8-8-8-8-8-8-8-8--8-8-8-x-8-8-8--8-8-8-8-8-8-7-7-8--|
g|----------------------------------------------------------------------|
d|----------------------------------------------------------------------|
a|----------------------------------------------------------------------|
E|----------------------------------------------------------------------|

    both guitars x2

last time there is a slight change

E|--------------------------------------------------------|
B|--------------------------------------------------------|
G|-8------------------------------------------------------|
D|-8---6h8--888-xx--10-x--10------------------------------|
A|-6--------888-xx--10-x--8h10--8--8h10-------------------|
E|----------666-xx--8--x----------------------------------|

Verse: Both Gtrs
e|---------------------------------------------------------------------|
b|---------------------------------------------------------------------|
g|--8-8-8-8-8-8-8-8--8-8-8-8-8-8-8-8--5-5-5-5-5-5-5-5------------------|
d|--8-8-8-8-8-8-8-8--8-8-8-8-8-8-8-8--5-5-5-5-5-5-5-5--6-6-6-6-6-6-6-6-|
a|--6-6-6-6-6-6-6-6--5-5-5-5-5-5-5-5--3-3-3-3-3-3-3-3--6-6-6-6-6-6-6-6-|
E|-----------------------------------------------------4-4-4-4-4-4-4-4-|
     p.m. x2
     no p.m. x2

Chorus: both Gtrs
e|---------------------------------------------------------------------------------|
b|---------------------------------------------------------------------------------|
g|-8--8-8-8--8-8-8-8---------------------------------------------------------------|
d|-8--8-8-8--8-8-8-8--3--3-3-3--3-3-3-3--6--6-6-6--6-6-6-6--9--9-9-9--9-9-9--8-8-8-|
a|-6--6-6-6--6-6-6-6--3--3-3-3--3-3-3-3--6--6-6-6--6-6-6-6--9--9-9-9--9-9-9--8-8-8-|
E|--------------------1--1-1-1--1-1-1-1--4--4-4-4--4-4-4-4--7--7-7-7--7-7-7--6-6-6-|

    x2 

   Gtr 1
e|------------------------------------------------------------|
b|------------------------------------------------------------|
g|-8--8-8-8--8-8-----------------5--5-5-5--5-5----------------|
d|-8--8-8-8--8-8--8--8-8-8--8-8--5--5-5-5--5-5--6--6-6-6--6-6-|
a|-6--6-6-6--6-6--8--8-8-8--8-8--3--3-3-3--3-3--6--6-6-6--6-6-|
E|----------------6--6-6-6--6-6-----------------4--4-4-4--4-4-|

   Gtr 2
e|-----------------------------------------------------------------------------|
b|-8-x8-8--9-9-8--8-8-8-8-x8-8--6-6-8--8-8-8-8-x8-8--11-9-8--8-8-8-8-x8--6-8---|
g|-8-x8-8--8-8-8--8-8-8-8-x8-8--7-7-8--8-8-8-8-x8-8--8--8-8--8-8-8-8-x8--7-8-8-|
d|---------------------------------------------------------------------------8-|
a|-----------------------------------------------------------------------------|
E|-----------------------------------------------------------------------------|

Verse: Both Gtrs
e|---------------------------------------------------------------------|
b|---------------------------------------------------------------------|
g|--8-8-8-8-8-8-8-8--8-8-8-8-8-8-8-8--5-5-5-5-5-5-5-5------------------|
d|--8-8-8-8-8-8-8-8--8-8-8-8-8-8-8-8--5-5-5-5-5-5-5-5--6-6-6-6-6-6-6-6-|
a|--6-6-6-6-6-6-6-6--5-5-5-5-5-5-5-5--3-3-3-3-3-3-3-3--6-6-6-6-6-6-6-6-|
E|-----------------------------------------------------4-4-4-4-4-4-4-4-|
     p.m. x2
     no p.m. x2


Chorus: both Gtrs
e|---------------------------------------------------------------------------------|
b|---------------------------------------------------------------------------------|
g|-8--8-8-8--8-8-8-8---------------------------------------------------------------|
d|-8--8-8-8--8-8-8-8--3--3-3-3--3-3-3-3--6--6-6-6--6-6-6-6--9--9-9-9--9-9-9--8-8-8-|
a|-6--6-6-6--6-6-6-6--3--3-3-3--3-3-3-3--6--6-6-6--6-6-6-6--9--9-9-9--9-9-9--8-8-8-|
E|--------------------1--1-1-1--1-1-1-1--4--4-4-4--4-4-4-4--7--7-7-7--7-7-7--6-6-6-|
   x2

Bridge: Gtr 1
e|----------------------------------------|
b|----------------------------------------|
g|8--8-8-8--8-8-8-8-x-x-5--5-5-5----------|
d|8--8-8-8--8-8-8-8-x-x-5--5-5-5--6-6-6-6-|
a|6--6-6-6--5-5-5-5-x-x-3--3-3-3--6-6-6-6-|
E|--------------------------------4-4-4-4-|
     x4


  bass plays a fast bit x4

e|------------|
b|---8--------|
g|-----8------|
d|-------8----|
a|------------|
E|------------|

  one guitar plays these 3 notes when they sing "ahhh-ahhh" during the bass bit

Chorus: both Gtrs
e|---------------------------------------------------------------------------------|
b|---------------------------------------------------------------------------------|
g|-8--8-8-8--8-8-8-8---------------------------------------------------------------|
d|-8--8-8-8--8-8-8-8--3--3-3-3--3-3-3-3--6--6-6-6--6-6-6-6--9--9-9-9--9-9-9--8-8-8-|
a|-6--6-6-6--6-6-6-6--3--3-3-3--3-3-3-3--6--6-6-6--6-6-6-6--9--9-9-9--9-9-9--8-8-8-|
E|--------------------1--1-1-1--1-1-1-1--4--4-4-4--4-4-4-4--7--7-7-7--7-7-7--6-6-6-|
   x2

   Gtr 1
e|------------------------------------------------------------|
b|------------------------------------------------------------|
g|-8--8-8-8--8-8-----------------5--5-5-5--5-5----------------|
d|-8--8-8-8--8-8--8--8-8-8--8-8--5--5-5-5--5-5--6--6-6-6--6-6-|
a|-6--6-6-6--6-6--8--8-8-8--8-8--3--3-3-3--3-3--6--6-6-6--6-6-|
E|----------------6--6-6-6--6-6-----------------4--4-4-4--4-4-|

   Gtr 2
e|-----------------------------------------------------------------------------|
b|-8-x8-8--9-9-8--8-8-8-8-x8-8--6-6-8--8-8-8-8-x8-8--11-9-8--8-8-8-8-x8--6-8---|
g|-8-x8-8--8-8-8--8-8-8-8-x8-8--7-7-8--8-8-8-8-x8-8--8--8-8--8-8-8-8-x8--7-8-8-|
d|---------------------------------------------------------------------------8-|
a|-----------------------------------------------------------------------------|
E|-----------------------------------------------------------------------------|
  Gtr 1 + Gtr 2 x4

Outro
E|--------------------------------------------------------|
B|--------------------------------------------------------|
G|-8------------------------------------------------------|
D|-8---6h8--888-xx--10-x--10------------------------------|
A|-6--------888-xx--10-x--8h10-11-11p10-------------------|
E|----------666-xx--8--x----------------------------------|
 
E|--------------------------------------------------------|
B|--------------------------------------------------------|
G|-8------------------------------------------------------|
D|-8---6h8--888-xx--10-x--10------------------------------|
A|-6--------888-xx--10-x--8h10-11-11 11-10----------------|
E|----------666-xx--8--x----------------------------------|

            
            
Suggest correction
Creating personal tab
Creating personal tab
You can edit any tab online and save it as your Personal.

You can edit, replace or remove any tab part or add personal notes – all changes will be seen only by you.

Personal tabs can be accessed anytime from any device, even offline.
Learn more »
comments
print report bad tab
10 comments total. Showing first comments.
0 reply
spitfireuk1 30 Mar 15, 2004 07:00 PM

nice job

0 reply
hobo8917 30 May 24, 2004 08:00 PM

yea sounds pretty accurate

0 reply
starbomb13 440 Sep 03, 2004 08:00 PM

accurate

guest
You may want to rate the tab now too:
select rating
Wanna post a correction for this tab? Suggest correction