Oops, an error
Loading. Please wait.
We have an official Motivation tab made by UG professional guitarists. Check out the tab »
×
by Sum 41
21,759 views 3 this week
5 commentsread comments
1 2 3 4 5
x 21
add to favorites
×
Save as Personal and add changes to this tab that will be seen only by you. Learn more ›
×
You can save this tab as Personal to edit and correct it or add notes. All changes will be seen only by you. Learn more »
launch autoscroll
font size
0
reset
guitar tuner
backing track
0:00
0:00
edit
Autoscroll
slow
fast
+/-
esc
set tempo
stop
Sum 41 Motivation bass Tab

tabbed by El Leggio

Intro
G-----------------------------------------------------------
D-----------------------------------------------------------
A-----------------------------------------------------------
E-00---00---00---00---0/12----------------------------------

-------------------------------------------------------¦
-------------------------------------------------------¦
-------------------------------------------------------¦(x2)
-000-45-54-000-45-54-000-45-54-777-45-54---------------¦

Verse (What's the difference....)
-------------------------------------------------------¦
-------------------------------------------------------¦
---------------0000--2222------------------------------¦(x3)
---0000--4444------------------------------------------¦

-------------------------------------------------------¦
---------------------6644------------------------------¦
---------------0000------------------------------------¦
---0000--4444------------------------------------------¦

Chorus (Motivation.....)
--------------------------------------------------------¦
--------------------------------------------------------¦
---777777777-------679-777777777------------------------¦
-------------777777--------------5555-7777--5~-5--7777--¦

InTro

Verse

Chorus

BrEaK  (Nothing's New.....)
-------------------------------------------------------¦
-------------------------------------------------------¦
-------------------------------------------------------¦(x3)
---0-45-777-5-5555555----------------------------------¦

(No Matter what you say.....)
-------------------------------------------------------¦
-------------------------------------------------------¦
-------------------------------------------------------¦
---222222222--55555555----00---------------------------¦

Pause for a sec. Braketed notes optional
-------------------------------------------------------¦
-------------------------------------------------------¦
-------(5420)------(000--222)--------------------------¦x2
---0-0---------4-0-------------------------------------¦

(Can't Depend.....)
-------------------------------------------------------¦
-------------------------------------------------------¦
--4444444444444444---2222222222222222(22)--------------¦
-------------------------------------------------------¦

-------------------------------------------------------¦
---22222222--------------------------------------------¦
------------22222222-00000000-22222222222222-----------¦
-------------------------------------------------------¦

Ending (Wait coz there is a rest 4 about 5-6 beats then come in)
-----------9-----11--9---9-------14--13--11------------¦
------9h11-------------9-------------------------------¦
-------------------------------------------------------¦
-------------------------------------------------------¦
('Motivation....')
---9--11---9---9------/14--13--11----------------------¦
-------------9-----------------------------------------¦
-------------------------------------------------------¦
-------------------------------------------------------¦

-------------------------------------------------------¦
-------------------------------------------------------¦
--------2222-------0000--------------------------------¦x4
---0000-------2222-------------------------------------¦

Intro

End on E

Thats my first complete bass tab i hope it's ok it took me a while.

            
            
Suggest correction
Creating personal tab
Creating personal tab
You can edit any tab online and save it as your Personal.

You can edit, replace or remove any tab part or add personal notes – all changes will be seen only by you.

Personal tabs can be accessed anytime from any device, even offline.
Learn more »
comments
print report bad tab
5 comments total. Showing first comments.
0 reply
Andrewhitesides 0 Apr 26, 2002 08:00 PM

Not shabby i might say

0 reply
I-GuitarBassist 10 Jul 12, 2007 09:27 AM

This one's inaccurate, on SO MANY levels, tiddle's ta
b is better.

0 reply
fenderdoj 10 Oct 07, 2007 03:14 AM

nice tab but i'd say the verse is wrong, but its more simple then tiddle's. i prefer ur tab then his, but not the verse and the

guest
Wanna post a correction for this tab? Suggest correction