Oops, an error
Loading. Please wait.
We have an official Motivation tab made by UG professional guitarists. Check out the tab »
×
by Sum 41
8,125 views 3 this week
no commentswrite comment
1 2 3 4 5
x 3
add to favorites
×
Save as Personal and add changes to this tab that will be seen only by you. Learn more ›
×
You can save this tab as Personal to edit and correct it or add notes. All changes will be seen only by you. Learn more »
launch autoscroll
font size
0
reset
guitar tuner
backing track
0:00
0:00
edit
Autoscroll
slow
fast
+/-
esc
set tempo
stop
Author
Song     :Motivation (Bass)
Artist   :Sum 41
Tabbed By:Chirantan
E-Mail   :chirantan.pal@gmailcom

                                                             
G||-----------------------|----------------------|--------------------------|
D||-----------------------|----------------------|--------------------------|
A||-----------------------|----------------------|--------------------------|
E||--0--0-----------0--0--|-----------0--0-------|-----12S----0--0--4--5----|

                                                         
|-------------------------|-------------------------|-------------------------|
|-------------------------|-------------------------|-------------------------|
|-------------------------|-------------------------|-------------------------|
|--5--4--0--0--0--4--5----|--5--4--0--0--0--4--5----|--5--4--7--7--7--4--5----|

                                                         
|------------------------|-------------------------|-------------------------|
|------------------------|-------------------------|-------------------------|
|------------------------|-------------------------|-------------------------|
|--0--0----4--5----5--4--|--0--0--0--4--5----5--4--|--0--0--0--4--5----5--4--|

                                                         
|------------------------|--------------------------|--------------------------|
|------------------------|--------------------------|--------------------------|
|------------------------|--------------------------|--------------------------|
|--7--7--7--4--5---------|--0--0--0--0--4--4--4--4--|--5--5--5--5--7--7--7--7--|

                                      
|--------------------------|--------------------------|
|--------------------------|--------------------------|
|--------------------------|--------------------------|
|--0--0--0--0--4--4--4--4--|--5--5--5--5--7--7--7--7--|

                                      
|--------------------------|--------------------------|
|--------------------------|--------------------------|
|--------------------------|--------------------------|
|--0--0--0--0--4--4--4--4--|--5--5--5--5--7--7--7--7--|

                                                           
|--------------------------|----------------------|---------------------------|
|--------------------------|----------------------|---------------------------|
|--------------------------|------------4----6----|---7--7--7--7--7--7--7--7--|
|--0--0--0--0--4--4--4--4--|--5----7--------------|---------------------------|

                                      
|--------------------------|--------------------------|
|--------------------------|--------------------------|
|--------------------------|--7--7--7--7--7--7--7--7--|
|--7--7--7--7--7--7--7--7--|--------------------------|

                                                           
|---------------------------|--------------------|------------------------|
|---------------------------|--------------------|------------------------|
|---------------------------|--------------------|------------------------|
|--5--5--5--5--7--7--7--7---|--4--------5--------|--0--0----4--5----5--4--|

       
|-------------------------|-------------------------|------------------------|
|-------------------------|-------------------------|------------------------|
|-------------------------|-------------------------|------------------------|
|--0--0--0--4--5----5--4--|--0--0--0--4--5----5--4--|--7--7--7--4--5------0--|

                                                         
|------------------------|-------------------------|-------------------------|
|------------------------|-------------------------|-------------------------|
|------------------------|-------------------------|-------------------------|
|--0----4--5----5--4--0--|--0--0--4--5----5--4--0--|--0--0--4--5----5--4--7--|

                                                         
|------------------------|--------------------------|--------------------------|
|------------------------|--------------------------|--------------------------|
|------------------------|--------------------------|--------------------------|
|--7--7--4--5------------|--0--0--0--0--4--4--4--4--|--5--5--5--5--7--7--7--7--|

                                      
|--------------------------|--------------------------|
|--------------------------|--------------------------|
|--------------------------|--------------------------|
|--0--0--0--0--4--4--4--4--|--5--5--5--5--7--7--7--7--|

                                      
|--------------------------|--------------------------|
|--------------------------|--------------------------|
|--------------------------|--------------------------|
|--0--0--0--0--4--4--4--4--|--5--5--5--5--7--7--7--7--|

                                                           
|--------------------------|----------------------|--------------------------|
|--------------------------|----------------------|--------------------------|
|--------------------------|------------4----6----|--7--7--7--7--7--7--7--7--|
|--0--0--0--0--4--4--4--4--|--5----7--------------|--------------------------|

                                      
|--------------------------|--------------------------|
|--------------------------|--------------------------|
|--7--7--7--7--7--7--7--7--|--------------------------|
|--------------------------|--7--7--7--7--7--7--7--7--|

                                                           
|--------------------------|--------------------|-------------------------|
|--------------------------|--------------------|-------------------------|
|--------------------------|--5--------7--------|-------------2--2--2--0--|
|--5--5--5--5--7--7--7--7--|--------------------|--0----0--0--------------|

                                                         
|--------------------------|-------------------------|--------------------------|
|--------------------------|-------------------------|--------------------------|
|-----0--0--0--0--0--0--0--|-------------2--2--2--0--|-----0--0--0--0--0--0--0--|
|--------------------------|--0----0--0--------------|--------------------------|

                                                         
|-------------------------|--------------------------|--------------------------|
|-------------------------|--------------------------|--------------------------|
|-------------2--2--2--0--|-----0--0--0--0--0--0--0--|--------------------------|
|--0----0--0--------------|--------------------------|--2--2--2--2--2--2--2--2--|

                                        
|--------------------------|--------------------------|
|--------------------------|--------------------------|
|--0--0--0--0--0--0--0--0--|--------------------------|
|--------------------------|--0--0--------------------|

                                      
|--------------------------|--------------------------|
|--------------------------|--------------------------|
|--------------------------|--------------------------|
|--------------------------|--0--0--------------------|

                                                           
|--------------------------|--------------------------|-----------------------|
|--------------------------|--------------------------|-----------------------|
|--------------------------|--------5--4--2--0--------|--0----0--2--2----2----|
|--------------------------|--0--0--------------4--0--|-----------------------|

                                                         
|--------------------------|-----------------------|--------------------------|
|--------------------------|-----------------------|--------------------------|
|--------5--4--2--0--------|--0----0--2--2----2----|--4--4--4--4--4--4--4--4--|
|--0--0--------------4--0--|-----------------------|--------------------------|

                                      
|--------------------------|--------------------------|
|--------------------------|--------------------------|
|--4--4--4--4--4--4--4--4--|--2--2--2--2--2--2--2--2--|
|--------------------------|--------------------------|

                                                         
|--------------------------|--------------------------|-------------------|
|--------------------------|--------------------------|-------------------|
|--2--2--2--2--2--2--2--2--|--7--7--7--7--7--7--7--7--|-------------------|
|--------------------------|--------------------------|-------------------|

                                                           
|-------------------|-------------------|-------------------------|
|-------------------|-------------------|-----------------9--11---|
|-------------------|-------------------|-------------------------|
|-------------------|-------------------|-------------------------|

                             
|--9----------------|--11------9-----------|--9----------------|
|-------------------|-----------------9----|-------------------|
|-------------------|----------------------|-------------------|
|-------------------|----------------------|-------------------|

                                                         
|--14------13------11----|--9----------------|--11------9-----------|
|------------------------|-------------------|-----------------9----|
|------------------------|-------------------|----------------------|
|------------------------|-------------------|----------------------|

                          
|--9----------------|--14------13------11----|--------------------------|
|-------------------|------------------------|--------------------------|
|-------------------|------------------------|--------------2--2--------|
|-------------------|------------------------|--0--0--------------------|

                                      
|--------------------------|--------------------------|
|--------------------------|--------------------------|
|--------------0--0--------|--------------2--2--------|
|--2--2--------------------|--0--0--------------------|

                                                           
|----------------------------|------------------------|-------------------------|
|----------------------------|------------------------|-------------------------|
|----------------------------|----------4--4----4-----|----------0--0--0--0--0--|
|--2--2--------12S--------0--|--0----0-------------4--|--4----4-----------------|

                                                         
|------------------------|-------------------------|------------------------|
|------------------------|-------------------------|------------------------|
|----------4--4----4-----|----------0--0--0--0--0--|----------4--4----4-----|
|--0----0-------------4--|--4----4-----------------|--0----0-------------4--|

                                                         
|-------------------------|------------------------|--------------------------|
|-------------------------|------------------------|--------------------------|
|----------0--0--0--0--0--|---------------------2--|--0--0--0--0--0--0--0--0--|
|--4----4-----------------|--0----0--4--4----4-----|--------------------------|

                                                         
|--------------------------|------------------------|-------------------------|
|--------------------------|------------------------|-------------------------|
|--4--4--4--4--4--4--4--4--|------------------------|-------------------------|
|--------------------------|--0--0----4--5----5--4--|--0--0--0--4--5----5--4--|

                                                        
|-------------------------|------------------------|------------------------|
|-------------------------|------------------------|------------------------|
|-------------------------|------------------------|------------------------|
|--0--0--0--4--5----5--4--|--7--7--7--4--5------0--|--0----4--5----5--4--0--|

                                                         
|-------------------------|-------------------------|------------------------|
|-------------------------|-------------------------|------------------------|
|-------------------------|-------------------------|------------------------|
|--0--0--4--5----5--4--0--|--0--0--4--5----5--4--7--|--7--7--4--5------------|


|-----|-----||
|-----|-----||
|-----|-----||
|-----|-----||

            
            
Suggest correction
Creating personal tab
Creating personal tab
You can edit any tab online and save it as your Personal.

You can edit, replace or remove any tab part or add personal notes – all changes will be seen only by you.

Personal tabs can be accessed anytime from any device, even offline.
Learn more »
Give kudos to tab author, rate the tab!
1 2 3 4 5
comments
print report bad tab
guest
You may want to rate the tab now too:
select rating
Wanna post a correction for this tab? Suggest correction