Oops, an error
Loading. Please wait.
We have an official No Apologies tab made by UG professional guitarists. Check out the tab »
×
by Sum 41
2,418 views 1 this week
1 commentread comment
1 2 3 4 5
2 more votes to show rating
add to favorites
×
Save as Personal and add changes to this tab that will be seen only by you. Learn more ›
×
You can save this tab as Personal to edit and correct it or add notes. All changes will be seen only by you. Learn more »
launch autoscroll
font size
0
reset
how to read this tab
guitar tuner
edit
Autoscroll
slow
fast
+/-
esc
set tempo
stop
Author
Song:No Apologies
Album:Underclass Hero
Artist:Sum 41
Date Tabbed:July,2007
Guitar Tabber: poad (darkjedi09@gmail.com)

For your questions or suggestions,just e-mail me.

Gtr.Legends:
. - palm muting
x - dead string
~ - let it ring
h - hammer-on
p - pull-off
/ - slide
b - bend 

Tuning: standard


Intro 1
e|---------------------------------------------|
B|---------------------------------------------|
G|--7-77777777---------------------------------|
D|--7-77777777---------------------------------|x2
A|--5-55555555---------------------------------|
E|---------------------------------------------|
      ........

Intro 2
e|---------------------------------------------|
B|---------------------------------------------|
G|---7777--------------------------------------|
D|---7777-7777-5555555-------------------------|x2
A|---5555-7777-5555555-------------------------|
E|--------5555-3333333-------------------------|


Verse
e|----------------------------------------------|
B|----------------------------------------------|
G|--77777777------------------------------------|
D|--77777777-77777777-99999999-55555555---------|
A|--55555555-77777777-99999999-55555555---------|
E|-----------55555555-99999999-33333333---------|
    ....... ......... ........ ........

e|----------------------------------------------|
B|----------------------------------------------|
G|--77777777------------------------------------|
D|--77777777-77777777-99999999-55555555---------|
A|--55555555-77777777-99999999-55555555---------|
E|-----------55555555-77777777-33333333---------|
    ....... ......... ........   ..


Pre-Chorus
e|-------------------------------------------------|
B|-------------------------------------------------|
G|--44444444----------77777777---------------------|
D|--44444444-55555555-77777777-77777777------------|x2
A|--22222222-55555555-55555555-77777777------------|
E|-----------33333333----------55555555------------|


Chorus
e|----------------------------------------------|
B|----------------------------------------------|
G|--77777777------------------------------------|
D|--77777777-77777777-99999999-55555555---------|x2
A|--55555555-77777777-99999999-55555555---------|
E|-----------55555555-77777777-33333333---------|


Intro 2

Verse

Pre-chorus

Chorus


Interlude 1
e|------------------------------------------------|
B|------------------------------------------------|
G|--77777777-77777777-----------------------------|
D|--77777777-77777777-99999999--55--77------------|x2
A|--55555555-44444444-99999999--55--77------------|
E|--------------------77777777--33--55------------|


Solo
e|---------------------------------------------------------------------------|
B|---------------------------------------------------------------------------|
G|---------------------------------------------------------------------------|
D|-----------------------------------12-------14-------16-------14-12--------|
A|--9-99-9h10p9----------------12-12----12-12----12-12----12-12--------------|
E|--------------10--5-5-77-9-------------------------------------------------|

e|---------------------------------------------------------------------------|
B|---------------------------------------------------------------------------|
G|---------------------------------------------------------------------------|
D|----------------------------------17-------19-------21-------19-12---------|
A|--9-99-9h10p9---------------17-17----17-17----17-17----17-17---------------|
E|--------------10--5-5-77-9-------------------------------------------------|


Interlude 2                  x3
e|--------------------------------------------|
B|--------------------------------------------|
G|--77777777----------------------------------|gtr1
D|--77777777---------------------5555-7777----|
A|--55555555---------------------5555-7777----|
E|-------------------------------3333-5555----|
 |
e|--------------------------------------------|
B|--------------------------------------------|
G|--------------------------------------------|
D|--7777777777777777777777777777777777777777--|gtr2
A|--xxxxxxxxxxxxxxxxxxxxxxxxxxxxxxxxxxxxxxxx--|
E|--5555555555555555555555555555555555555555--|


Intro 1

Chorus x2

Intro 1


Thats all. I'm not sure about the solo, but i think it's very close to the album version.

            
            
Suggest correction
Creating personal tab
Creating personal tab
You can edit any tab online and save it as your Personal.

You can edit, replace or remove any tab part or add personal notes – all changes will be seen only by you.

Personal tabs can be accessed anytime from any device, even offline.
Learn more »
Give kudos to tab author, rate the tab!
1 2 3 4 5
comments
print report bad tab
1 comment total.
0 reply
sum41rules 10 Oct 05, 2007 12:48 PM

Its not amazin, its not crap. solo wtf?
easy enough otherwise tho is just power chords

-x-sum 41 rules-x-

guest
You may want to rate the tab now too:
select rating
Wanna post a correction for this tab? Suggest correction