Oops, an error
Loading. Please wait.
We have an official No Reason tab made by UG professional guitarists. Check out the tab »
×
by Sum 41
1,262 views 3 this week
no commentswrite comment
1 2 3 4 5
3 more votes to show rating
add to favorites
×
Save as Personal and add changes to this tab that will be seen only by you. Learn more ›
×
You can save this tab as Personal to edit and correct it or add notes. All changes will be seen only by you. Learn more »
launch autoscroll
font size
0
reset
guitar tuner
edit
Autoscroll
slow
fast
+/-
esc
set tempo
stop
the notes in brakets () are sixteenth notes (really fats)

----------------------------------|
----------------------------------|
------3------------------2----5--2|
2----------5----2--2--------------|

--------------------------------------|
--------------------------------------|
------3------------------2----5--2----|
2----------5----2--2----------------22|

-----------------------------------|
-----------------------------------|
-HEY----HEY----HEY--3--------------|
-------------------------5---22----|

---------------------------------|
---------------------------------|
-HEY----HEY----HEY--3------------|
-------------------------5-------|

---------------------------------|
---------------------------------|
--------3333------------22225555-|
22222222----000022222222---------|

---------------------------------|
---------------------------------|
--------3333------------22225555-|
22222222----000022222222---------|


------------------|
------------54----|
----3333------55--|
0222----0222------|

(unitll he says "I won't let go" etc.)


-----------------------------------------------------|
-----------------------------------------------------|
----3--2--5555555533333333--------5555555555555035---|
0222----------------------55555555-------------------|

------------------------------------------------------------------|
------------------------------------------------------------------|
33333333---------555555557777777733333333--------5555555555555035-|
--------555555525------------------------55555555-----------------|

--------------------------------------------|
--------------------------------------------|
33333333--------5555555577777777------------|
--------55555545----------------22----22----|


------------------|
------------54----|
----3333------55--|
0222----0222------|


(untill he says "I won't follow." etc.)

-----------------------------------------------------|
-----------------------------------------------------|
----3--2--5555555533333333--------5555555555555035---|
0222----------------------55555555-------------------|

------------------------------------------------------------------|
------------------------------------------------------------------|
33333333---------555555557777777733333333--------5555555555555035-|
--------555555525------------------------55555555-----------------|

---------------------------------------9-|
------------------------------------9----|
33333333--------55555555777777777777-----|
--------55555545-------------------------|


----------------------------|
----------------------------|
777755553333----22225555----|
------------5555------------|

---------------------------------|
----------------------------7777-|
7777999910101010101010109999-----|
---------------------------------|

----------------------------------|
----------------------------------|
-----HEY---HEY---HEY---3----------|
22-------------------------5---22-|

------------------------------------------|
------------------------------------------|
222255557-----7--3---5---7-----7--2---5---|
------------------------------------------|

---------------------------|
---------------------------|
55555555(5555555555555555)-|
---------------------------|

(i am not 100% on this. just play it untill it has the end part is it is more times then this.)

------------------------------------------------------------------|
------------------------------------------------------------------|
33333333---------555555557777777733333333--------5555555555555035-|
--------555555525------------------------55555555-----------------|

------------------------------------------------------------------|
------------------------------------------------------------------|
33333333---------555555557777777733333333--------5555555555555035-|
--------555555525------------------------55555555-----------------|

------------------------------------------------------------------|
------------------------------------------------------------------|
33333333---------555555557777777733333333--------5555555555555035-|
--------555555525------------------------55555555-----------------|

--------------------------|
--------------------------|
7(777777)7(777777)--------|
--------------------------|

well thats it the order may be screwed up but the notes are right.FOR SURE. i have a 
book with this so it is reall. is any questions e-mail me at o00thunderhawk00o@hotmail.com

            
            
Suggest correction
Creating personal tab
Creating personal tab
You can edit any tab online and save it as your Personal.

You can edit, replace or remove any tab part or add personal notes – all changes will be seen only by you.

Personal tabs can be accessed anytime from any device, even offline.
Learn more »
Give kudos to tab author, rate the tab!
1 2 3 4 5
comments
print report bad tab
guest
Wanna post a correction for this tab? Suggest correction