Oops, an error
Loading. Please wait.
We have an official No Reason tab made by UG professional guitarists. Check out the tab »
×
by Sum 41
1,543 views 1 this week
no commentswrite comment
1 2 3 4 5
3 more votes to show rating
add to favorites
×
Save as Personal and add changes to this tab that will be seen only by you. Learn more ›
×
You can save this tab as Personal to edit and correct it or add notes. All changes will be seen only by you. Learn more »
launch autoscroll
font size
0
reset
guitar tuner
edit
Autoscroll
slow
fast
+/-
esc
set tempo
stop
Author
here is no reason by sum 41 i hope you like this tab it took me a while to tab it out 
ad the lyrics i tried to put the lyrics right above where you are supposed to be at. enjoy ;D

 No reason
     all      of     us believe            that this is no       up to you
----------------|---------------------|----------------------|--------------|
----------------|---------------------|----------------------|--------------|
--------------3-|---------------------|----------------2-----|-2---5--------|
2---------------|-----5------------2--|-2--------------------|----------2---|
      the fact   of the matter  is        that        its     up to       me!
----------------|---------------------|----------------------|--------------|
----------------|---------------------|----------------------|--------------|
--------------3-|---------------------|----------------2-----|-2---5--------|
2---------------|-----5------------2--|-2--------------------|----------2---|
    HEY!        HEY!     HEY!
-------------|--------|--------|-----------|
-------------|--------|--------|-----------|
-------------|--------|--------|-3---------|
2-2----------|--------|--------|------5----|
      HEY!          HEY!            HEY!        lets go!
--------------|---------------|---------------|-----------|
--------------|---------------|---------------|-----------|
--------------|---------------|---------------|-2----5----|
2-2-----------|-2-2-----------|-2-2-----------|-----------|

----------------|-----------------|-----------------|-----------------|
----------------|-----------------|-----------------|-----------------|
----------------|-3-3-3-3---------|-----------------|-2-2-2-2-5-5-5-5-| X2
2-2-2-2-2-2-2-2-|---------0-0-0-0-|-2-2-2-2-2-2-2-2-|-----------------|
    how can we   fake  this  any  more?
----------------|-----------------|----------------|-----------------|
----------------|---------5-4-----|----------------|---------5-4-----|
--------3-3-2-2-|-------------5-5-|--------3-3-2-2-|-------------5-5-| X3
0-2-2-2---------|-0-2-2-2---------|0-2-2-2---------|-0-2-2-2---------|
takes a way a part of me       bot i      won't      let     go
----------------|-----------------|-----------------|-----------------|
----------------|---------5-4-----|-----------------|-----------------|
--------3-3-2-2-|-------------5-5-|---------3---2---|-5-5-5-5-5-5-5-5-|
0-2-2-2---------|-0-2-2-2---------|-0-2-2-2---------|-----------------|
cant     you     see     its        not       the     way     when we
----------------|-----------------|-----------------|-----------------|
----------------|-----------------|-----------------|-----------------|
3-3-3-3-3-3-3-3-|-----------------|-5-5-5-5-5-5-5-5-|-5-5-5-5-5-0-3-5-|
----------------|-5-5-5-5-5-5-5-5-|-----------------|-----------------|
all       fall    down     it will be        too      late    why   is
     its too late    we cant change          what has now begun
----------------|-----------------|-----------------|-----------------|
----------------|-----------------|-----------------|-----------------|
3-3-3-3-3-3-3-3-|-----------------|-5-5-5-5-5-5-5-5-|-7-7-7-7-7-7-7-7-|
----------------|-5-5-5-5-5-5-4-5-|-----------------|-----------------|
there     no      reason            we       cant   change?    when we
      we act like    its not right.          why are we pretending?
----------------|-----------------|-----------------|-----------------|
----------------|-----------------|-----------------|-----------------|
3-3-3-3-3-3-3-3-|-----------------|-5-5-5-5-5-5-5-5-|-5-5-5-5-5-0-3-5-|
----------------|-5-5-5-5-5-5-4-5-|-----------------|-----------------|


all       fall   down     who will take    the     blame what will it
   we've  been wrong  for so long   we've known this
----------------|-----------------|-----------------|-----------------|
----------------|-----------------|-----------------|-----------------|
3-3-3-3-3-3-3-3-|-----------------|-5-5-5-5-5-5-5-5-|-7-7-7-7-7-7-7-7-|
----------------|-5-5-5-5-5-5-4-5-|-----------------|-----------------| (2)
if nothing could ever be this real.
----------------|-----------------|----------------|-----------------|
----------------|---------5-4-----|----------------|---------5-4-----|
--------3-3-2-2-|-------------5-5-|--------3-3-2-2-|-------------5-5-| X3
0-2-2-2---------|-0-2-2-2---------|0-2-2-2---------|-0-2-2-2---------|
much more than just black and white and i wont       follow
----------------|-----------------|-----------------|-----------------|
----------------|---------5-4-----|-----------------|-----------------|
--------3-3-2-2-|-------------5-5-|---------3---2---|-5-5-5-5-5-5-5-5-|
0-2-2-2---------|-0-2-2-2---------|-0-2-2-2---------|-----------------
cant     you     see     its        not       the     way     when we
----------------|-----------------|-----------------|-----------------|
----------------|-----------------|-----------------|-----------------|
3-3-3-3-3-3-3-3-|-----------------|-5-5-5-5-5-5-5-5-|-5-5-5-5-5-0-3-5-|
----------------|-5-5-5-5-5-5-5-5-|-----------------|-----------------|
all       fall    down     it will be        too      late    why   is
     its too late    we cant change          what has now begun
----------------|-----------------|-----------------|-----------------|
----------------|-----------------|-----------------|-----------------|
3-3-3-3-3-3-3-3-|-----------------|-5-5-5-5-5-5-5-5-|-7-7-7-7-7-7-7-7-|
----------------|-5-5-5-5-5-5-4-5-|-----------------|-----------------|
there     no      reason            we       cant   change?    when we
      we act like    its not right.          why are we pretending?
----------------|-----------------|-----------------|-----------------|
----------------|-----------------|-----------------|-----------------|
3-3-3-3-3-3-3-3-|-----------------|-5-5-5-5-5-5-5-5-|-5-5-5-5-5-0-3-5-|
----------------|-5-5-5-5-5-5-4-5-|-----------------|-----------------|
all       fall   down     who will take    the     blame what will it take?
   we've  been wrong  for so long   we've known this
----------------|-----------------|-----------------|-------------9---|
----------------|-----------------|-----------------|---------9-------|
3-3-3-3-3-3-3-3-|-----------------|-5-5-5-5-5-5-5-5-|-7-7-7-7---------|
----------------|-5-5-5-5-5-5-4-5-|-----------------|-----------------|
times  like      these    I've     come       to      see    how
----------------|-----------------|-----------------|-----------------|
----------------|-----------------|-----------------|-----------------|
7-7-7-7-5-5-5-5-|-3-3-3-3---------|-2-2-2-2-5-5-5-5-|-2-2-2-2-5-5-5-5-|
----------------|---------5-5-5-5-|-----------------|-----------------|
everything        but                      time   is         running
----------------|-------------------------|-----------------|-----------------|
----------------|-------------------------|---------7-7-7-7-|---------7-7-7-7-|
7-7-7-7-9-9-9-9-|-10-10-10-10-10-10-10-10-|-9-9-9-9---------|-9-9-9-9---------|
----------------|-------------------------|-----------------|-----------------|
out.    HEY!            HEY!              HEY!
----------------|-----------------|-----------------|-----------------|
----------------|-----------------|-----------------|-----------------|
----------------|-----------------|-----------------|3----------------|
2-2-------------|-----------------|-----------------|-----5-----------|



      HEY!              HEY!              HEY!              RIGHT!
----------------|-----------------|-----------------|-----------------|
----------------|-----------------|-----------------|-----------------|
----------------|-----------------|-----------------|-2-2-2-2-5-5-5-5-|
2-2-------------|-2-2-------------|-2-2-------------|-----------------|

all           of  us      believe                in  what    we
----------------|-----------------|-----------------|-----------------|
----------------|-----------------|-----------------|-----------------|
7----------7----|-3---------5-----|-7-----------7---|-2---------5-----| X2
----------------|-----------------|-----------------|-----------------|
see.
----------------|-----------------|
----------------|-----------------|
5-5-5-5-5-5-5-5-|-555555555555555-|
----------------|-----------------|
cant     you     see     its        not       the     way     when we
----------------|-----------------|-----------------|-----------------|
----------------|-----------------|-----------------|-----------------|
3-3-3-3-3-3-3-3-|-----------------|-5-5-5-5-5-5-5-5-|-5-5-5-5-5-0-3-5-|
----------------|-5-5-5-5-5-5-5-5-|-----------------|-----------------|
all       fall    down     it will be        too      late    why   is
     its too late    we cant change          what has now begun
----------------|-----------------|-----------------|-----------------|
----------------|-----------------|-----------------|-----------------|
3-3-3-3-3-3-3-3-|-----------------|-5-5-5-5-5-5-5-5-|-7-7-7-7-7-7-7-7-|
----------------|-5-5-5-5-5-5-4-5-|-----------------|-----------------|
there     no      reason            we       cant   change?    when we
      we act like    its not right.          why are we pretending?
----------------|-----------------|-----------------|-----------------|
----------------|-----------------|-----------------|-----------------|
3-3-3-3-3-3-3-3-|-----------------|-5-5-5-5-5-5-5-5-|-5-5-5-5-5-0-3-5-|
----------------|-5-5-5-5-5-5-4-5-|-----------------|-----------------|
all       fall   down     who will take    the     blame what will it
   we've  been wrong  for so long   we've known this
----------------|-----------------|-----------------|
----------------|-----------------|-----------------|
3-3-3-3-3-3-3-3-|-----------------|-5-5-5-5-5-5-5-5-|
----------------|-5-5-5-5-5-5-4-5-|-----------------|
blame what will it take
all                long
-----------------|-----------------|----------------|
-----------------|-----------------|----------------|
7-7777777-777777-|-----------------|----------------|
-----------------|-2-2-2-2-2-2-2-2-|-2--------------|
cant     you     see     its        not       the     way     when we
----------------|-----------------|-----------------|-----------------|
----------------|-----------------|-----------------|-----------------|
3-3-3-3-3-3-3-3-|-----------------|-5-5-5-5-5-5-5-5-|-5-5-5-5-5-0-3-5-|
----------------|-5-5-5-5-5-5-5-5-|-----------------|-----------------|
all       fall    down     it will be        too      late    why   is
     its too late    we cant change          what has now begun
----------------|-----------------|-----------------|-----------------|
----------------|-----------------|-----------------|-----------------|
3-3-3-3-3-3-3-3-|-----------------|-5-5-5-5-5-5-5-5-|-7-7-7-7-7-7-7-7-|
----------------|-5-5-5-5-5-5-4-5-|-----------------|-----------------|

there     no      reason            we       cant   change?    when we
      we act like    its not right.          why are we pretending?
----------------|-----------------|-----------------|-----------------|
----------------|-----------------|-----------------|-----------------|
3-3-3-3-3-3-3-3-|-----------------|-5-5-5-5-5-5-5-5-|-5-5-5-5-5-0-3-5-|
----------------|-5-5-5-5-5-5-4-5-|-----------------|-----------------|
all       fall   down     who will take    the     blame what will it
   we've  been wrong  for so long   we've known this
----------------|-----------------|-----------------|-----------------|
----------------|-----------------|-----------------|-----------------|
3-3-3-3-3-3-3-3-|-----------------|-5-5-5-5-5-5-5-5-|-7-7-7-7-7-7-7-7-|
----------------|-5-5-5-5-5-5-4-5-|-----------------|-----------------|
take?
----------------------------------|
----------------------------------|
----------------------------------|
2-2------2-2----------------------|

            
            
Suggest correction
Creating personal tab
Creating personal tab
You can edit any tab online and save it as your Personal.

You can edit, replace or remove any tab part or add personal notes – all changes will be seen only by you.

Personal tabs can be accessed anytime from any device, even offline.
Learn more »
Give kudos to tab author, rate the tab!
1 2 3 4 5
comments
print report bad tab
guest
You may want to rate the tab now too:
select rating
Wanna post a correction for this tab? Suggest correction