Oops, an error
Loading. Please wait.
We have an official Nothing On My Back tab made by UG professional guitarists. Check out the tab »
×
by Sum 41
2,118 views 1 this week
1 commentread comment
1 2 3 4 5
x 6
add to favorites
×
Save as Personal and add changes to this tab that will be seen only by you. Learn more ›
×
You can save this tab as Personal to edit and correct it or add notes. All changes will be seen only by you. Learn more »
launch autoscroll
font size
0
reset
guitar tuner
edit
Autoscroll
slow
fast
+/-
esc
set tempo
stop
Artist: Sum 41
Song: Nothing On My Back
Album: All Killer, No Filler
Tabbed by: necriononguitar
e-mail (NO SPAM!): tim.rathgen@gmx.de

REAL FANS SUPPORT BANDS PURCHASING THEIR CD'S!!!


. = Palm-Muted
~ = hold note
^ = vibrate
p = pull off
h = hammer on
/ = slide up
\ = slide down


Tuning: Standard

"""Intro"""
G---------------------------------------------|
D---------------5-----5-----5-7---------------|
A-------------4---------7-5-------------------|
E---5-----5-7---------------------------------|


"""Verse"""       () = last note of the intro
0:15
G-----------------------------------------------------|
D-----------------------------------------------------|
A---(12~\)--------------------------------------------|
E------------------------2--2---3--5--5---------------|

0:26
G-----------------------------------------|
D-----------------------------------------|
A-----------------------------------------|
E----3---3-3----2-2----0-0---0------------|

0:29
G---------------------------------------------------------|
D---------------------------------------------------------|
A---12-12-12-12-12-12-12-12--12-12-12-12-12-9-9-10--x2----|
E---------------------------------------------------------|

0:35
G--------------------------------------------------------------------|
D--------------------12-12-12-12-12-12-12-12-------------------------|
A----10---9-10---12---------------------------7-7-7-7-7-7-7-7(\)-----|
E--------------------------------------------------------------------|


"""Chorus"""    0:39
G----------------------------------------------------|
D----------------------------------------------------|
A------------------------5-5-5-5---------------------|
E----5-5-5--4--3----3-3-----------0-0-0-0------------|

0:48    Little different
G------------------------------------------|
D------------------------------------------|
A-----------------------5-5-5--7~----------|
E----5-5-5--4--3-----3---------------------|


Now REPEAT INRTO as INTERLUDE!


"""Verse II"""    1:02
G-----------------------------------------------------|
D-----------------------------------------------------|
A-------------------------------5-5-5-5---------------|
E-----5-5-5-5--3-3-3-3--5-5-5-5-----------------------|

1:19
G----------------------------------------------|
D----------------------------------------------|
A-----5--------7--7--7--7--7--7--7--7----------|
E-----------or-0--0--0--0--0--0--0--0----------|


Now REPEAT CHORUS!


"""Break"""    1:41
G----------------------------------------|
D----------------------------------------|
A----7-7-7-7-7-7-7-7--x8-----------------|
E----------------------------------------|

1:52    Now u can keep playing the 7 or this:
G-----------------------------------------------------------------------|
D--------------------7~--------------------------------9~---------------|
A----5---5---7~---------7~----7~-------5---5---7~---------7~----7~------|
E------5-------------------7~------------5-------------------7~---------|

2:04
G-----------------------------------------------------------------------------|
D-----------------------------------------------------------------------------|
A----5---5--~-7------5---5---7~------5---6--5---6--5---6----------------------|
E------5---------------5---------------5------5------5-----5-5-5-5-5-5-5-5----|x2


"""Break II"""    2:17
G---------------------------------------------|
D---------------------------------------------|
A-----------5-5-5-5---------------------------|  x8, i guess...
E---0-0-0-0---------5-5-5-5-7-7-7-7-----------|


"""Outro-Chorus"""    2:40
G--------------------------------------------------|
D--------------------------------------------------|
A---7-7-7--6--5----5-------------------------------|
E---------------------5-5-5-5--7-7-7-7-------------|

2:48
G--------------------------------------|
D--------------------------------------|
A---7-7-7--6--5----5-------------------|
E---------------------5-5-5--7~--------|


and thats it! I hope u enjoyed, please rate, comment and correct me!

Cheers...

            
            
Suggest correction
Creating personal tab
Creating personal tab
You can edit any tab online and save it as your Personal.

You can edit, replace or remove any tab part or add personal notes – all changes will be seen only by you.

Personal tabs can be accessed anytime from any device, even offline.
Learn more »
comments
print report bad tab
1 comment total.
0 reply
RocknRollKing 10 May 27, 2010 05:38 AM

great tab, def the best around!

guest
You may want to rate the tab now too:
select rating
Wanna post a correction for this tab? Suggest correction