Oops, an error
Loading. Please wait.
We have an official Over My Head Better Off Dead tab made by UG professional guitarists. Check out the tab »
×
by Sum 41
11,956 views 6 this week
2 commentsread comments
1 2 3 4 5
x 3
add to favorites
×
Save as Personal and add changes to this tab that will be seen only by you. Learn more ›
×
You can save this tab as Personal to edit and correct it or add notes. All changes will be seen only by you. Learn more »
launch autoscroll
font size
0
reset
guitar tuner
edit
Autoscroll
slow
fast
+/-
esc
set tempo
stop
intro
------------------------------------------------------------------|
------------------------------------------------------------------|
----------------5-5-5-5-------------------------5-5-5-5-----------|
0-0-0-0-3-3-3-3---------3-3-3-3-0-0-0-0-3-3-3-3---------3-3-3-3---|

--------------------------------|
--------------------------------|
----------------5-5-5-5---------| X2
0-0-0-0-3-3-3-3---------3-3-3-3-|

make sure you listen for the correct rhythm of this part to get it right.

Verse
----------------------------|
--------------5-5-----------|
7-7-7-------7--------5-5--5-| X4
-------------------7--------|

----------------------------------------------------------|
----5-----5---------4---------5-----5---------5-----------|
3-3---3-3---3-3-5-5---5-5-7-7---7-7---7-7-7-7---7-9-9-7-7-|
----------------------------------------------------------|

--------------------------------------------------------|
----5-----5---------4-----4-----------------------------|
3-3---3-3---3-3-5-5---5-5---5-5-7-7-7-7-7-7-7-7-7-7-7---|
--------------------------------------------------------|

Chorus
----------------------------------------------------------------|
----------------------------------------------------------------|
----------------3-3-3-3-3-3-3-3-----------------5-5-5-5-5---5-5-|
0-0-0-0-0-0-0-0-----------------3-3-3-3-3-3-3-3-----------7-----|

------------------------------------------------------------------------|
--------------------------------------------------------4-----5---------|
7-7-7-7-7-7-7-7-10-10-10-10-10-10-10-10-5-5-5-5-5-5-5-5---5-5---5-5-5---|
------------------------------------------------------------------------|

end of chorus
-----------------------------|
-----------------------------|
-----3-3-----------5-5-5---5-| X2
0-----------3-3----------7---|

Verse 2
---------------------------|
-------------5-5-----------|
7-7-7---------------5-5--5-| X4
-----------7------7--------|

----------------------------------------------------------------|
----5-----5---------4-----4---------5-----5---------5-----------|
3-3---3-3---3-3-5-5---5-5---5-5-7-7---7-7---7-7-7-7---7-9-9-7-7-|
----------------------------------------------------------------|

--------------------------------------------------------|
----5-----5---------7-----7-----------------------------|
3-3---3-3---3-3-5-5---5-5---5-5-7-7-7-7-7-7-7-7-7-7-7---|
--------------------------------------------------------|

Chorus
----------------------------------------------------------------|
----------------------------------------------------------------|
----------------3-3-3-3-3-3-3-3-----------------5-5-5-5-5---5-5-|
0-0-0-0-0-0-0-0-----------------3-3-3-3-3-3-3-3-----------5-----|

------------------------------------------------------------------------|
--------------------------------------------------------4-----5-----7-7-|
7-7-7-7-7-7-7-7-10-10-10-10-10-10-10-10-5-5-5-5-5-5-5-5---5-5---5-6-----|
------------------------------------------------------------------------|

Bridge
----------------------------------------------------------------|
----------------------------------------------------------------|
----------------3---3---3---3-----------------------5---5---5---|
0---0---0---0-------------------3---3---3---3---2---2---2-------|

---------------------------------------------------------------------|
-------------------------------------------------------------7-7-7-7-|
7---7-7-7---7-7-10-10-10---10---10---5---5---5---5---5-5-5-----------|
---------------------------------------------------------------------|

--------------------------------------------------------------|
--------------------------------------------------------------|
----------------3---3---3---3-------------------5---5---5---5-|
0---0---0---0-------------------3---3-3-3---3---2---2---2-----|

---------------------------------------------------------------------|
-------------------------------------------------------------7---7---|
7---7---7---7---7-7-10-10-10---10---10-----5---5-----5---5-----------|
---------------------------------------------------------------------|

----------------------------------------------------------------|
--------------------------------5-5-5-5---------7-7-5-5-4-4-5-5-|
----------------5-5-5-5-5-5-5-5---------5-5-5-5-----------------| X3
0-0-0-0-0-0-0-0-2-2-2-2-2-2-2-2---------------------------------|

----------------------------------------------------------------|
--------------------------------5-5-5-5---------7-7-7-7-7-7-----|
----------------5-5-5-5-5-5-5-5---------5-5-5-5-------------5---|
0-0-0-0-0-0-0-0-2-2-2-2-2-2-2-2---------------------------------|

----------------------------------------------------------------|
7-7-7-7-7-7---7-------------------------------------------------|
------------5-------------------3-3-3-3-3-3-3-3-----------------|
----------------0-0-0-0-0-0-0-0-----------------3-3-3-3-3-3-3-3-|

--------------------------------------------------------|
--------------------------------------------------------|
5-5-5-5-5---5-5-7-7-7-7-7-7-7-7-10-10-10-10-10-10-10-10-|
----------7---------------------------------------------|

--------------------------------|
----------------4-----5-----7---|
5-5-5-5-5-5-5-5---5-5---5-5-----|
--------------------------------|

-----------------------------|
-----------------------------|
-----3-3-----------5-5-5---5-| X4
0-----------3-3----------7---|

and then you are DONE!. i am pretty sure this is right. but if you have any corrections 
me know +D

            
            
Suggest correction
Creating personal tab
Creating personal tab
You can edit any tab online and save it as your Personal.

You can edit, replace or remove any tab part or add personal notes – all changes will be seen only by you.

Personal tabs can be accessed anytime from any device, even offline.
Learn more »
Give kudos to tab author, rate the tab!
1 2 3 4 5
comments
print report bad tab
2 comments total.
0 reply
Likien 161 Jul 11, 2014 12:06 AM

Lack of formatting. Lack of accuracy.

0 reply
Pepepbassit5 39 Dec 23, 2015 12:17 PM

This tab so far out of the song it really suck delete this crappy tab, why would anyone submit this crap.

guest
You may want to rate the tab now too:
select rating
Wanna post a correction for this tab? Suggest correction