Oops, an error
Loading. Please wait.
We have an official Over My Head Better Off Dead tab made by UG professional guitarists. Check out the tab »
×
by Sum 41
12,078 views 1 this week
4 commentsread comments
1 2 3 4 5
x 10
add to favorites
×
Save as Personal and add changes to this tab that will be seen only by you. Learn more ›
×
You can save this tab as Personal to edit and correct it or add notes. All changes will be seen only by you. Learn more »
launch autoscroll
font size
0
reset
guitar tuner
edit
Autoscroll
slow
fast
+/-
esc
set tempo
stop
Artist: Sum 41
Song: Over My Head
Album: Does This Look Infected?
Tabbed by: necriononguitar (70 other tabs)
e-mail: tim.rathgen@gmx.de (no spam!)

REAL FANS SUPPORT BANDS BY PURCHASING THEIR CD'S!!!


Tuning: Standard

. = Palm-Muted
~ = hold note
^ = vibrate
p = pull off
h = hammer on
/ = slide up
\ = slide down


Here's a vid of my brother covering the song (EASIER TO LEARN) 
http://www.youtube.com/watch?v=3wlpBeaCERs&feature=channel


Intro: 0:05
G-----------------------------------------------------------------|
D-----------------------------------------------------------------|
A--7-7-7-7----10-10-10-10-----------------10-10-9-10--------------| x4
E----------------------------10-10-10-10--------------------------|


Verse: 0:15
G------------------------------------------------------|
D---------5--5-------------------5--5------------------|
A--7\---5-------2----5-5-7\----5------2----5-5---------| x2
E------------------------------------------------------|


Pre-Chorus 0:26
G--------------------------------------------------------------------|
D------5------5----5---------4------4----4--------5------5----5------|
A--3-3----3-3----3-------5-5----5-5----5------7-7----7-7----7--------| \
E--------------------------------------------------------------------|  \
                                                                          x2
G----------------------------------|                                    /
D------5------5-5--4---------------|                                   /
A--7-7----7-----------7------------|
E----------------------------------|


Chorus 0:36
G--------------------------------------------------------------------------|
D--------------------------------------------------------------------------|
A-------------------3-3-3-3-3-3-3-3--------------------5-5-5-5-5-5-5-5-----|
E--0-0-0-0-0-0-0-0---------------------3-3-3-3-3-3-3-3---------------------|

G--------------------------------------------------------------------------|
D-------------------10-10-10-10-10-10-10-10--------------------------------|
A--7-7-7-7-7-7-7-7---------------------------10-10-10-10-10-10-10-10-------|
E--------------------------------------------------------------------------|

G------------------------------------|
D------------------------------------|
A--5-5-5-5-5-5-5-5-------------------|
E------------------------------------|


Post-Chorus 0:46
G-----------------------------------------------|
D-----------------------------------------------|
A--------3-3(x)--------------(3)-5-5-3-5--------| x2
E--0(x)------------3-3(x)--3--------------------|


///REPEAT VERSE\\\

///REPEAT PRE-/USUAL-/POSTCHORUS\\\


Bridge 1:23  
G---------------------------------------|
D---------------------------------------|
A---------3-x8--------------------------|
E--0-x8----------3-x8---2-x8------------|          
                                                   
G---------------------------------------------|      
D---------10-x8-------------------------------|     
A--7-x8-----------10-x8--10-10-10-10-x-x-x-x--|    
E---------------------------------------------|


G---------------------------------------|
D---------------------------------------|
A---------3-x8--------------------------|
E--0-x8----------3-x8---2-x8------------|

G---------------------------------------------------|
D---------10-x8-------------------------------------|
A--7-x8-----------x-x-10-10--x-x-10-10--x-x-10------|
E---------------------------------------------------|


Little Solo-Shit 1:44   (im VERY sure this is right. listen very closly)
G----------------------------------------------------------------------------|
D----------------------------------------------------------------------------|
A-7-7-7-7-7-7-7-7-9-9-9-9-7-9-7-9--10-10-10-10-7-7-7-7--12-12-10-10-9-9-10-10|
E----------------------------------------------------------------------------|
   x4   (he plays the extra-thing at the 9 only at the 1. time)


///REPEAT CHORUS AND PROST-CHORUS\\\



Thats it! I hope this helped, please rate, comment and correct me!

Cheers...

            
            
Suggest correction
Creating personal tab
Creating personal tab
You can edit any tab online and save it as your Personal.

You can edit, replace or remove any tab part or add personal notes – all changes will be seen only by you.

Personal tabs can be accessed anytime from any device, even offline.
Learn more »
comments
print report bad tab
4 comments total. Showing first comments.
0 reply
Craig-Bass1995 177 Sep 21, 2009 10:56 PM

I'm Sure It Is Played In Drop-D. Other Than That I See no Problems. Good Tab!

0 reply
necriononguitar 3,062 Oct 01, 2009 10:01 AM

ya, i know. usually i play sum drop d, but i though its easier to play it standard.

but thanks for the comment^^

0 reply
SharakonRHCP 10 Nov 18, 2009 06:39 AM

in my opinion everythings allright. 5*

guest
You may want to rate the tab now too:
select rating
Wanna post a correction for this tab? Suggest correction