Oops, an error
Loading. Please wait.
We have an official Over My Head Better Off Dead tab made by UG professional guitarists. Check out the tab »
×
by Sum 41
7,947 views 1 this week
no commentswrite comment
1 2 3 4 5
x 4
add to favorites
×
Save as Personal and add changes to this tab that will be seen only by you. Learn more ›
×
You can save this tab as Personal to edit and correct it or add notes. All changes will be seen only by you. Learn more »
launch autoscroll
font size
0
reset
how to read this tab
guitar tuner
edit
Autoscroll
slow
fast
+/-
esc
set tempo
stop
Author
Difficulty
Sum 41 - Over my head (Better off dead).
Standard tuning (EADGBe).
Tabbed by Luke Shaddock.
Lyrics included at bottom.

Intro

e------------------      -----------------------------|
B------------------      -----------------------------|
G------------------ (x2) -9999-12121212-11111111-7777-| (x4)
D---5-9--9-----7--4      -9999-12121212-11111111-7777-|
A-77-7-10-10-99-55-      -7777-10101010--9-9-9-9-5555-|
E------------------      -----------------------------|

Verse 1

e------------------       ------------------------------------|
B------------------       ------------------------------------|
G------------------  (x4) ------------------------------------|
D---5-9--9-----7--4       ---2--2-2---4--4-4---5--9-5--5--9-5-|
A-77-7-10-10-99-55-       -33-33-3--55-55-5--77-77-7-77-77-7--|
E------------------       ------------------------------------|

e-----------------------------7~-----|
B-------------------------------7~---|
G---------------------------------7~-|
D---2--2-2---4--4-4-55555555---------|
A-33-33-3--55-55-5--77777777---------|
E------------------------------------|

Chorus

e-----------------------------------       -----------------|
B------------------------------------      -----------------|
G-99999999-55555555----------77777777 (x2) -9-55----777777--| (x2)
D-99999999-55555555-55555555-77777777      -9-55-55-777777--|
A-77777777-33333333-55555555-55555555      -7-33-55-555555--|
E-------------------33333333---------      ------33---------|

Verse 2

e------------------       ------------------------------------|
B------------------       ------------------------------------|
G------------------  (x4) ------------------------------------|
D---5-9--9-----7--4       ---2--2-2---4--4-4---5--9-5--5--9-5-|
A-77-7-10-10-99-55-       -33-33-3--55-55-5--77-77-7-77-77-7--|
E------------------       ------------------------------------|

e-----------------------------7~-----|
B-------------------------------7~---|
G---------------------------------7~-|
D---2--2-2---4--4-4-55555555---------|
A-33-33-3--55-55-5--77777777---------|
E------------------------------------|

Chorus

e-------------------------------------|
B-------------------------------------|
G-99999999-55555555----------77777777-| (x2)
D-99999999-55555555-55555555-77777777-|
A-77777777-33333333-55555555-55555555-|
E-------------------33333333----------|

Interlude Chords

e-------------------------------------------------------------------------|
B-------------------------------------------------------------------------|
G----------55555555----------------------------55555555-------------------|
D-22222222-55555555-55555555-77777777-22222222-55555555-55555555-33xxxxxx-|
A-22222222-33333333-55555555-77777777-22222222-33333333-55555555-33xxxxxx-|
E-00000000----------33333333-55555555-00000000----------33333333-55xxxxxx-|

e-------------------------------------------------------------------------|
B-------------------------------------------------------------------------|
G----------55555555----------------------------55555555-------------------|
D-22222222-55555555-55555555-77777777-22222222-55555555-55xxxxxx-44xxxxxx-|
A-22222222-33333333-55555555-77777777-22222222-33333333-55xxxxxx-44xxxxxx-|
E-00000000----------33333333-55555555-00000000----------33xxxxxx-22xxxxxx-|

Lead

e-----------------------------------------------------------------------|
B-----------------------------------------------------------------------|
G-12121212-9999-14141414-12121212-16161616-12121212-1111-1212-1414-1616-|
D-12121212-9999-14141414-12121212-16161616-12121212-1111-1212-1414-1616-| (x3)
A-10101010-7777-12121212-10101010-14141414-10101010--9-9-1010-1212-1414-|
E-----------------------------------------------------------------------|


e---------------------------------------------------------------------------|
B---------------------------------------------------------------------------|
G-12121212-9999-14141414-12121212-16161616-12121212-1111-1212-1414-16161616-|
D-12121212-9999-14141414-12121212-16161616-12121212-1111-1212-1414-16161616-|
A-10101010-7777-12121212-10101010-14141414-10101010--9-9-1010-1212-14141414-|
E---------------------------------------------------------------------------|

Chorus

e-----------------------------------       -----------------|
B------------------------------------      -----------------|
G-99999999-55555555----------77777777 (x2) -9-55----777777--| (x4)
D-99999999-55555555-55555555-77777777      -9-55-55-777777--|
A-77777777-33333333-55555555-55555555      -7-33-55-555555--|
E-------------------33333333---------      ------33---------|


LYRICS

What happened to you
You've played the victim for so long now in this game
What i thought was true
It's made of fiction and i'm following the same

But if I try
To make sense of this mess I'm in
I'm not sure where I should begin
I'm falling, I'm falling

Now I'm in over my head, with something i said
Completely misread, I'm better off dead.
And now I can see, how fake you can be
This hypocracy's beginning to get to me.

It's none of my concern
Why look to me because I don't believe in fame
I guess you never heard I've met our makers
They don't even know your name

But if I had to say goodbye to leave this hell
I'd say my time has served me well
I'm falling
I'm falling

Now I'm in over my head, with something i said
Completely misread, I'm better off dead
And now I can see, how fake you can be
This hypocracy's beginning to get to

This came long before those who suffer more
I'm too awake for this to be a nightmare
What's with my disgrace I lost the human race
No one plans for it to blow up in their face

Who said it was easy to put back all these pieces
Who said it was so easy to put back all of these pieces

Now I'm in over my head, with something I said
Completely misread, I'm better off dead
And now I can see, how fake you can be
This hypocracy's beginning to get to me

Over my head, better off dead
Over my head, better off dead

Alright!

            
            
Suggest correction
Creating personal tab
Creating personal tab
You can edit any tab online and save it as your Personal.

You can edit, replace or remove any tab part or add personal notes – all changes will be seen only by you.

Personal tabs can be accessed anytime from any device, even offline.
Learn more »
comments
print report bad tab
guest
You may want to rate the tab now too:
select rating
Wanna post a correction for this tab? Suggest correction