Oops, an error
Loading. Please wait.
We have an official Pain For Pleasure tab made by UG professional guitarists. Check out the tab »
×
by Sum 41
11,081 views 1 this week
12 commentsread comments
1 2 3 4 5
x 24
add to favorites
×
Save as Personal and add changes to this tab that will be seen only by you. Learn more ›
×
You can save this tab as Personal to edit and correct it or add notes. All changes will be seen only by you. Learn more »
launch autoscroll
font size
0
reset
guitar tuner
edit
Autoscroll
slow
fast
+/-
esc
set tempo
stop
Sum 41
"Pain For Pleasure"
Tabbed By Adam

Bass starts at 0:09

INTRO
G------------------------------|
D------------------------------|
A--6---6-4---4-2---2-1---1-4---| (x4)
E------------------------------|

G-------------------------|
D-------------------------|
A--6-6---4-4---2-2---1-1--| 
E-------------------------|

G------|
D------|
A--1-4-|
E------|

G-------------------------|
D-------------------------|
A--6-6---4-4---2-2---1-1--| 
E-------------------------|

G---------------------------------------|
D---------------------------------------|
A--66666666-44444444-22222222-11111111--| (x2)
E---------------------------------------|

VERSE ("The seas have parted...")
G---------------------------------------|
D---------------------------------------|
A--66666666-44444444-22222222-11111111--| (x4)
E---------------------------------------|

CHORUS ("Pain for pleasure...")
G-----------------------------------|
D-----------------------------------|
A--6-6-6-6--9--6---6-6-6-6--222-444-|
E-----------------------------------|

G---------------------------|
D---------------------------|
A--6-6-6-6--9--6---6-6-6-6--|
E---------------------------|

G-----------|
D-----------|
A--222-444--| (x3)
E-----------|

G---------------------------|
D---------------------------|
A--6-("Rock Out!")--66-4-6/-|
E---------------------------|


That's all!  Great 80's metal rip-off...gotta love it!

Questions, comments, requests...E-Mail me at
mystery7punk@hotmail.com

            
            
Suggest correction
Creating personal tab
Creating personal tab
You can edit any tab online and save it as your Personal.

You can edit, replace or remove any tab part or add personal notes – all changes will be seen only by you.

Personal tabs can be accessed anytime from any device, even offline.
Learn more »
comments
print report bad tab
12 comments total. Showing first comments.
0 reply
wickhamjd 0 Feb 02, 2002 07:00 PM

Sum*41 Kick

-1 reply
metalgear1796 10 Mar 24, 2002 07:00 PM

This is a great tab. I don't see one flaw.

-1 reply
tiddles 30 Apr 04, 2002 07:00 PM

Its not really a hard song 2 play or tab but done well all the same. Top Tab!Top Band!Top Bloke!

guest
Wanna post a correction for this tab? Suggest correction