Oops, an error
Loading. Please wait.
We have an official Pieces tab made by UG professional guitarists. Check out the tab »
×
by Sum 41
618 views 3 this week
1 commentread comment
1 2 3 4 5
3 more votes to show rating
add to favorites
×
Save as Personal and add changes to this tab that will be seen only by you. Learn more ›
×
You can save this tab as Personal to edit and correct it or add notes. All changes will be seen only by you. Learn more »
launch autoscroll
font size
0
reset
guitar tuner
backing track
0:00
0:00
edit
Autoscroll
slow
fast
+/-
esc
set tempo
stop
Author
Difficulty
I am writing this knowing that the other tab are a bit inaccurate so here you are the (I 
hope) right tab. I made it listening and watching sum 41's video so Enjoy it :D





The bass starts at 00:53

Verse 00:53
G|----------------------------------------------------|
D|------------------------------------10--------------|
A|-55555555-11111111-77777777-33333-8/10-10/5---------| X2
E|----------------------------------------------------|

Pre- chorus 1:13
G|----------------------------------------------------|
D|----------------------------------------------------|
A|-55555555-11111111-77777777-33333333----------------|
E|----------------------------------------------------|

Chorus 1:22
G|----------------------------------------------------|
D|----------------------------------------------------|
A|-1111111111111111------------33333333---------------|
E|-------------------11111111-------------------------|

G|----------------------------------------------------|
D|----------------------------------------------------|
A|-1111111111111111------------33333333-1-------------|
E|-------------------11111111-------------------------|

Bridge 1:46
G|----------------------------------------------------|
D|----------------------------------------------------|
A|--------------1111---------------1111---------------|
E|-111111111111-------111111111111--------------------|
1:55
G|----------------------------------------------------|
D|----------------------------------------------------|
A|-5555-3333-1111------5555-3333-1111-----------------|
E|----------------1111----------------1111------------|
2:05
G|----------------------------------------------------|
D|----------------------------------------------------|
A|-000000000000-1\1212121212121212\-------------------|
E|----------------------------------------------------|

Verse 2:10
G|----------------------------------------------------|
D|------------------------------------10--------------|
A|-55555555-11111111-77777777-33333-8/10-10/5---------|
E|----------------------------------------------------|

Pre- chorus 2:20
G|----------------------------------------------------|
D|----------------------------------------------------|
A|-55555555-11111111-77777777-33333333----------------|
E|----------------------------------------------------|

Chorus 2:29
G|----------------------------------------------------|
D|----------------------------------------------------|
A|-1111111111111111------------33333333---------------|
E|-------------------11111111-------------------------|

G|----------------------------------------------------|
D|----------------------------------------------------|
A|-1111111111111111------------33333333-1-------------|
E|-------------------11111111-------------1-----------|



--------------------------------END------------------------------------------

            
            
Suggest correction
Creating personal tab
Creating personal tab
You can edit any tab online and save it as your Personal.

You can edit, replace or remove any tab part or add personal notes – all changes will be seen only by you.

Personal tabs can be accessed anytime from any device, even offline.
Learn more »
Give kudos to tab author, rate the tab!
1 2 3 4 5
comments
print report bad tab
1 comment total.
0 reply
Rufforock 74 Apr 16, 2013 01:16 PM

In the verse and Pre-chorus It's the 8 fret instead of 7, I'm sorry about it

guest
You may want to rate the tab now too:
select rating
Wanna post a correction for this tab? Suggest correction