Oops, an error
Loading. Please wait.

Pull The Curtain bass

version 1
version 1

Whole song

Interactive

by Sum 41
2,404 views 3 this week
no commentswrite comment
1 2 3 4 5
2 more votes to show rating
add to favorites
×
Save as Personal and add changes to this tab that will be seen only by you. Learn more ›
×
You can save this tab as Personal to edit and correct it or add notes. All changes will be seen only by you. Learn more »
launch autoscroll
font size
0
reset
guitar tuner
edit
Autoscroll
slow
fast
+/-
esc
set tempo
stop
Author
Difficulty
----------------------------------------------------------------------------
			     Sum 41 <3 Pull the curtain
----------------------------------------------------------------------------

Tabbed By : Robbie. H
e-mail: prosk8ter7@hotmail.com

This is my first tab its probly right cept maybe for when browntom is doing the solo. 
wasnt a bass tab so i decided to it.lol need to do somthing b4 halo 3 comes out :P
Tuning: stand
intro
G|-------------------------------------------|
D|-------------------------------------------|
A|-------------------------------------------|
E|-44444-00000--------------44444-00000------|
intro pt 2 dawg

G|--------------------------------------------------------------------------|
D|--------------------------------------------------------------------------|
A|-22-2/4-2-1-2-------------22-7/9-7-6-2-------------22-1-2-2-1-2-44--------|
E|--------------44444-00000--------------44444-00000-----------------0~-----|
Verse x2

G|-----------------------------------|
D|-----------------------------------|
A|-2~--------------------------------|
E|------2~----4-2-0~-----------------|

Repeat intro pt 2
Repeat verse

Chorus
G|--------------------------------------------------------------------------|
D|--------------------------------------------------------------------------|
A|--------------------------------------------------------------------------|
E|--00000--22222--44444--22222--00000--22222--4444--22222--00000000000------|
Bridge (solo)

G|----------------------------------------------------|
D|----------------------------------------------------|
A|-22222----------------------------------------------|
E|-------44444-00000-2222-3333----4444-2222-000000000-|
Wait till gtr 1 is done palm muted  then chorus 2

G|----------------------------------------------|
D|-------------------------------------------x2-|
A|-22222-11111----------------------------------|
E|-------------44444-22222-00000000-------------|

G|----------------------------------|
D|----------------------------------|
A|-------------22222---------x4-----|
E|-44444-00000-------22222----------|
End with

G|----------------------------------|
D|----------------------------------|
A|----------------------------------|
E|------4~--------------------------|


| /  slide up
| \  slide down
| h  hammer-on
| p  pull-off
| ~  vibrato
| +  harmonic
| x  Mute note
============================================================================

            
            
Suggest correction
Creating personal tab
Creating personal tab
You can edit any tab online and save it as your Personal.

You can edit, replace or remove any tab part or add personal notes – all changes will be seen only by you.

Personal tabs can be accessed anytime from any device, even offline.
Learn more »
Give kudos to tab author, rate the tab!
1 2 3 4 5
comments
print report bad tab
guest
You may want to rate the tab now too:
select rating
Wanna post a correction for this tab? Suggest correction