Oops, an error
Loading. Please wait.

Pull The Curtain bass

version 2
version 2

Whole song

Interactive

by Sum 41
1,857 views 1 this week
no commentswrite comment
1 2 3 4 5
3 more votes to show rating
add to favorites
×
Save as Personal and add changes to this tab that will be seen only by you. Learn more ›
×
You can save this tab as Personal to edit and correct it or add notes. All changes will be seen only by you. Learn more »
launch autoscroll
font size
0
reset
guitar tuner
edit
Autoscroll
slow
fast
+/-
esc
set tempo
stop
Difficulty
This songis very good. I hope it becomes a single [=
Ths tab is also simplifed, because cone is such  leg end,and im such a beginner
www.myspace.com/lastonestandingbaby
The band. I play bass, add me


Intro
G|-------------------------------|
D|-------------------------------| x2 (you can play as many 2's as
A|-------------22222222222222222-|     you like so long as you keep
E|-44444-00000-------------------|     in time)    [=

                           ------
G|--------------------------|     |
D|--------------------------|     |
A|-222222222222-------------|     |
E|--------------44444-00000-|     |
                                  | x2
G|--------------------------|     |     
D|--------------------------|     |
A|-222222222222-------------|     |
E|--------------44444-0~~~~-|     |
                            ------

G|---------------------------|
D|---------------------------|x2
A|-2~------------------------|
E|-------2~----4~--2~--0~-| 

Piano Bit
A|-2~------------| (I think its wrong you don't have to play it)
E|----2~--4~--0~-|
                            ------
G|--------------------------|     |
D|--------------------------|     |
A|-222222222222-------------|     |
E|--------------44444-00000-|     |
                                  | x2
G|--------------------------|     |     
D|--------------------------|     |
A|-222222222222-------------|     |
E|--------------44444-0~~~~-|     |
                            ------
Verse
G|------------------------|
D|------------------------|x2
A|-2~---------------------|
E|-------2~----4~--2~--0~-| 

Piano Bit
A|-2~------------|
E|----2~--4~--0~-|

Chorus
G|---------------------------------------------|
D|---------------------------------------------| x2
A|---------------------------------------------|
E|-0000000000-2222233333-4444444444-2222222222-|

G|-----------------|
D|-----------------|
A|-----------------|
E|-0000000000000---|

No bass during whispering

Bridge
G|--------------------------------------------------------|
D|--------------------------------------------------------|
A|-22222--------------------------------------------------|
E|-------44444-00000-22222-22222-44444-22222-0000000000---|

G|---------------------------------|
D|---------------------------------|
A|-------------22222---------------|
E|-44444-22222-------44444-00000000|

No bass, whispering again

Final Chorus
G|-----------------------------------------|
D|-----------------------------------------|x2
A|-22222-11111-----------------------------|
E|-------------44444-22222-0000000000000---|

G|------------------------------------------------|
D|------------------------------------------------|x4
A|------------------------22222222222-------------|
E|-44444444444-0000000000------------22222222222--|

Finsh on:
G|------|
D|------|
A|-4~~~-|
E|------|

            
            
Suggest correction
Creating personal tab
Creating personal tab
You can edit any tab online and save it as your Personal.

You can edit, replace or remove any tab part or add personal notes – all changes will be seen only by you.

Personal tabs can be accessed anytime from any device, even offline.
Learn more »
Give kudos to tab author, rate the tab!
1 2 3 4 5
comments
print report bad tab
guest
Wanna post a correction for this tab? Suggest correction