Oops, an error
Loading. Please wait.

Pull The Curtain tab

version 1
version 1

Whole song

Interactive

by Sum 41
18,313 views 12 this week
16 commentsread comments
1 2 3 4 5
x 24
add to favorites
×
Save as Personal and add changes to this tab that will be seen only by you. Learn more ›
×
You can save this tab as Personal to edit and correct it or add notes. All changes will be seen only by you. Learn more »
launch autoscroll
font size
0
reset
how to read this tab
guitar tuner
edit
Autoscroll
slow
fast
+/-
esc
set tempo
stop
Song:Pull the Curtain
Album:Underclass Hero
Artist:Sum 41
Date Tabbed:July,2007
Guitar Tabber:Ryan Manongdo/17/m/Philippines
              no_falter0x@yahoo.com(Friendster,MySpace&YM)
              
For your questions or suggestions,just post in friendster comment,PM or mail me.

Gtr.Legends:
/ - slide
h - hammer-on
x - dead string
~ - let it ring
. - palm muting

Gtr.Tuning:Standard(Normal)

Intro prt.1:
Gtr.1
e|------------------------------------|
B|------------------------------------|
G|------------------------------------|
D|-66666-22222---------666666-22222---|
A|-66666-22222---------666666-22222---|
E|-44444-00000---------444444-00000---|

Gtr.2
e|------------------------------------------------|
B|------------------------------------------------|
G|-44444444444444444444444444444444444444444444---|
D|-xxxxxxxxxxxxxxxxxxxxxxxxxxxxxxxxxxxxxxxxxxxx---|
A|-22222222222222222222222222222222222222222222---|
E|------------------------------------------------|

Intro prt.2:
e|----------------------------------------------------------------------------------------------------------|
B|----------------------------------------------------------------------------------------------------------|
G|-44-4/6-4-3-4---------------44--9/11--9-8-4---------------44-4/6-4-3-4---------------44-3h4-4-3h4-66------|
D|-xx-x-x-x-x-x-66666-22222---xx--x--x--x-x-x-66666-22222---xx-x-x-x-x-x-66666-2222----xx-x-x-x-x-x-xx-2~---|
A|-22-2/4-2-1-2-66666-22222---22--7/-9--7-6-2-66666-22222---22-2/4-2-1-2-66666-2222----22-1h2-2-1h2-44-2~---|
E|--------------44444-00000-------------------44444-00000----------------44444-0000--------------------0~---|

Verse:
e|-------------------------|
B|-------------------------|
G|-4~----------------------| 2x
D|-4~---4~----6~--4~--2~---| Then
A|-2~---4~----6~--4~--2~---|
E|------2~----4~--2~--0~---|

e|-14-11--------14-11-9~---|
B|-------12~---------------|
G|-------------------------|
D|-------------------------|
A|-------------------------|
E|-------------------------|


Repeat Intro prt.2

Repeat Verse:

Chorus 1:
e|------------------------------------------------------------------|
B|------------------------------------------------------------------|
G|------------------------------------------------------------------|
D|-22222-44444-66666-44444---22222-44444-66666-4444-2222222222222---|
A|-22222-44444-66666-44444---22222-44444-66666-4444-2222222222222---|
E|-00000-22222-44444-22222---00000-22222-44444-2222-0000000000000---|

Bridge:
Gtr.1
e|--------------------------------------------------------|
B|--------------------------------------------------------|
G|-44444--------------------------------------------------|
D|-44444-66666-22222-4444-5555---66666-44444-2222222222---|
A|-22222-66666-22222-4444-5555---66666-44444-2222222222---|
E|-------44444-00000-2222-3333---44444-22222-0000000000---|

Gtr.2
e|---------------------14------14-11--11------11------11--------------14-11-----------14-11-
B|-1212121212--12-11-9----12-9-----------12-9----12-9---12--12p11p9h11------12p11p9h11------
G|------------------------------------------------------------------------------------------
D|------------------------------------------------------------------------------------------
A|------------------------------------------------------------------------------------------
E|------------------------------------------------------------------------------------------


------------------------------------------14-11--------14\---|
--------------1212-1111--1212-1111---9-12---------9-12-16\---|
-------------------------------------------------------------|
-66666-44444-------------------------------------------------|
-66666-44444-------------------------------------------------|
-44444-22222-------------------------------------------------|

e|--------------------------|
B|--------------------------|
G|-44444--------------------|
D|-44444-66666-2222222222---|
A|-22222-66666-2222222222---|
E|-------44444-0000000000---|
   ..... ..... ..........

Chorus 2:
e|-----------------------------------------|
B|-----------------------------------------|
G|-44444-33333-----------------------------| 2x
D|-44444-33333-66666-44444-2222222222222---|
A|-22222-11111-66666-44444-2222222222222---|
E|-------------44444-22222-0000000000000---|

e|--------------------------      ------|
B|--------------------------      ------|
G|-------------44444-------- 4x   ------|
D|-66666-22222-44444-44444-- Then -6~---|
A|-66666-22222-22222-44444--      -6~---|
E|-44444-00000-------22222--      -4~---|

End...




            
            
Suggest correction
Creating personal tab
Creating personal tab
You can edit any tab online and save it as your Personal.

You can edit, replace or remove any tab part or add personal notes – all changes will be seen only by you.

Personal tabs can be accessed anytime from any device, even offline.
Learn more »
comments
print report bad tab
16 comments total. Showing first comments.
0 reply
blinkguitarist5 110 Jul 19, 2007 12:47 PM

you have to use octaves instead of single notes during the intro.

0 reply
AvAaron182 87 Jul 20, 2007 07:10 PM

god you suck at tabbing! sorry, but my god dude you missed so much,
sorry dude but seriously, i know you wanna be first and all but its worthless if you rush it cause then it sounds like shit

-1 reply
No_Falter08 2,414 Jul 20, 2007 11:13 PM

are you a racist??what is wrong here???i checked this tab 5x but nothings wrong...you said that my tab is shit,,look at your tab 1st before dropping a word...can you please point out the wrong part...you put the God's name in bane...

guest
You may want to rate the tab now too:
select rating
Wanna post a correction for this tab? Suggest correction