Oops, an error
Loading. Please wait.
We have an official Screaming Bloody Murder tab made by UG professional guitarists. Check out the tab »
×
by Sum 41
265 views 1 this week
no commentswrite comment
1 2 3 4 5
3 more votes to show rating
add to favorites
×
Save as Personal and add changes to this tab that will be seen only by you. Learn more ›
×
You can save this tab as Personal to edit and correct it or add notes. All changes will be seen only by you. Learn more »
launch autoscroll
font size
0
reset
how to read this tab
guitar tuner
edit
Autoscroll
slow
fast
+/-
esc
set tempo
stop
Song Name:Screaming Bloody Murder
Artist:Sum 41
Album Name:Screaming Bloody Murder
Tuning:Half-Step Down
...=Palm-muted
/=slide

Intro a:Guitar 1
Eb|-------------------------------------|
Bb|-------------------------------------|
Gb|---6-6-6-6---------------------------|
Db|---6-6-6-6-6-6-6-6-7-7-7-7-2-2-2-2---|
Ab|---4-4-4-4-6-6-6-6-7-7-7-7-2-2-2-2---|
Eb|-----------4-4-4-4-5-5-5-5-0-0-0-0---|

"I'm not quite myself these days..."

Eb|-------------------------------------|
Bb|-------------------------------------|
Gb|---6-6-6-6---------------------------|
Db|---6-6-6-6-7-7-7-7-2-2-2-2-2-2-2-2---|
Ab|---4-4-4-4-7-7-7-7-2-2-2-2-2-2-2-2---|
Eb|-----------5-5-5-5-0-0-0-0-4-4-4-4---|

"Time to time in different ways..."

Intro b:Guitar 1
Eb|---------------------------------------------------------------------------|
Bb|---------------------------------------------------------------------------|
Gb|---------------------------------------------------------------------------|
Db|----7-6---6-----7-6-----6-----7-6---6-------4-6-----6-7-------7-9-----6----|
Ab|--------4---4-4-------4---4-4-----4-----4-4-----4-4-------4-4-----4-4---4--|
Eb|---------------------------------------------------------------------------|

Intro c:Guitar 1
Eb|---------------------------------------------------------------------------|
Bb|---------------------------------------------------------------------------|
Gb|---------------------------------------------------------------------------|
Db|----7-6---6-----7-6-----6-----7-6---6-------4-6-----6-7-------7-9-----6----|
Ab|--------4---4-4-------4---4-4-----4-----4-4-----4-4-------4-4-----4-4---4--|
Eb|---------------------------------------------------------------------------|

Eb|----------------------------------------|
Bb|----------------------------------------|
Gb|----------------------------------------|
Db|----7-6---6-----7-6-----6-----7-6---6\--|
Ab|--------4---4-4-------4---4-4-----4-----|
Eb|----------------------------------------|

Intro c:Guitar 2
Eb|---------------------------------------------------------------------|
Bb|---------------------------------------------------------------------|
Gb|-----------------------------------6-6-6-6-6-6-6-6-2-2-2-2-2-2-2-2---|
Db|---2-2-2-2-2-2-2-2-4-4-4-4-4-4-4-4-6-6-6-6-6-6-6-6-2-2-2-2-2-2-2-2---|
Ab|---2-2-2-2-2-2-2-2-4-4-4-4-4-4-4-4-4-4-4-4-4-4-4-4-0-0-0-0-0-0-0-0---|
Eb|---0-0-0-0-0-0-0-0-2-2-2-2-2-2-2-2-----------------------------------|

Verse 1a:No Guitar
"God's got a plan for me..."

Verse 1b:Guitar 1
Eb|---------------------------------|
Bb|---------------------------------|
Gb|---------------------------------|
Db|---------------------------------|
Ab|---6-6-4-4-3-3-----3-3-4-4-6-6---|
Eb|---------------4-4---------------|
      ............................
"...patience or the time..."

Verse 1c:Guitar 1
Eb|---------------------------------------------------------------------------------------------|
Bb|---------------------------------------------------------------------------------------------|
Gb|---6-6-6-6-------------------------6-6-6-6-2-2-2-2---------2-2-2-2-9-9-9-9-4-4-4-4-----------|
Db|---6-6-6-6-6-6-6-6-2-2-2-2-6-6-6-6-6-6-6-6-2-2-2-2-2-2-2-2-2-2-2-2-9-9-9-9-4-4-4-4-6-6-6-6---|
Ab|---4-4-4-4-6-6-6-6-2-2-2-2-6-6-6-6-4-4-4-4-0-0-0-0-2-2-2-2-0-0-0-0-7-7-7-7-2-2-2-2-6-6-6-6---|
Eb|-----------4-4-4-4-0-0-0-0-4-4-4-4-----------------0-0-0-0-------------------------4-4-4-4---|
      ...................................................................................

Verse 1d:
Eb|---------------------------------|
Bb|---------------------------------|
Gb|---------------------------------|
Db|---------------------------------|
Ab|---6-6-4-4-3-3-----3-3-4-4-6-6---|
Eb|---------------4-4---------------|

"BUT I CAN BLEED..."

Chorus 1a:Both Guitars
Eb|---------------------------------------------------------------------|
Bb|---------------------------------------------------------------------|
Gb|-----------------------------------6-6-6-6-6-6-6-6-2-2-2-2-2-2-2-2---|
Db|---2-2-2-2-2-2-2-2-4-4-4-4-4-4-4-4-6-6-6-6-6-6-6-6-2-2-2-2-2-2-2-2---|
Ab|---2-2-2-2-2-2-2-2-4-4-4-4-4-4-4-4-4-4-4-4-4-4-4-4-0-0-0-0-0-0-0-0---|
Eb|---0-0-0-0-0-0-0-0-2-2-2-2-2-2-2-2-----------------------------------|

"Tear me open,I believe; God will set you up to bleed..."

Chorus 1b:Both Guitars

Eb|-------------------------------------|
Bb|-------------------------------------|
Gb|-------------------------------------|
Db|---2-2-2-2-2-2-2-2-4-4-4-4-4-4-4-4---|
Ab|---2-2-2-2-2-2-2-2-4-4-4-4-4-4-4-4---|
Eb|---0-0-0-0-0-0-0-0-2-2-2-2-2-2-2-2---|

"Bloody murder we will scream..."

Verse 2a:Guitar 1
Eb|---------------------------------------------------------------------------------------------------|
Bb|---------------------------------------------------------------------------------------------------|
Gb|---6-6-6-6-6-6-6-6-6-6-6-6-6-6-6-6-2-2-2-2-2-2-2-2-2-2-2-2-2-2-2-2-9-9-9-9-9-9-9-9-9-9-9-9-9-9-9---|
Db|---6-6-6-6-6-6-6-6-6-6-6-6-6-6-6-6-2-2-2-2-2-2-2-2-2-2-2-2-2-2-2-2-9-9-9-9-9-9-9-9-9-9-9-9-9-9-9---|
Ab|---4-4-4-4-4-4-4-4-4-4-4-4-4-4-4-4-0-0-0-0-0-0-0-0-0-0-0-0-0-0-0-0-7-7-7-7-7-7-7-7-7-7-7-7-7-7-7---|
Eb|---------------------------------------------------------------------------------------------------|
      .............................................................................................

"Well I guess it's time for me..."

Verse 2b:Guitar 1
Eb|---------------------------------|
Bb|---------------------------------|
Gb|---------------------------------|
Db|---------------------------------|
Ab|---6-6-4-4-3-3-----3-3-4-4-6-6---|
Eb|---------------4-4---------------|
     .............................

"...the concept of the pain..."

 Verse 2c:Guitar 1
Eb|---------------------------------------------------------------------------------------------|
Bb|---------------------------------------------------------------------------------------------|
Gb|---6-6-6-6-------------------------6-6-6-6-2-2-2-2---------2-2-2-2-9-9-9-9-4-4-4-4-----------|
Db|---6-6-6-6-6-6-6-6-2-2-2-2-6-6-6-6-6-6-6-6-2-2-2-2-2-2-2-2-2-2-2-2-9-9-9-9-4-4-4-4-6-6-6-6---|
Ab|---4-4-4-4-6-6-6-6-2-2-2-2-6-6-6-6-4-4-4-4-0-0-0-0-2-2-2-2-0-0-0-0-7-7-7-7-2-2-2-2-6-6-6-6---|
Eb|-----------4-4-4-4-0-0-0-0-4-4-4-4-----------------0-0-0-0-------------------------4-4-4-4---|
      ...................................................................................

"I don't want the fate..."

Verse 2d:Guitar 1
Eb|---------------------------------|
Bb|---------------------------------|
Gb|---------------------------------|
Db|---------------------------------|
Ab|---6-6-4-4-3-3-----3-3-4-4-6-6---|
Eb|---------------4-4---------------|

"WATCH ME BLEED..."

Chorus 1c:
Eb|-------------------------------------|
Bb|-------------------------------------|
Gb|-------------------5-5-5-5-5-5-5-5---|
Db|---2-2-2-2-2-2-2-2-5-5-5-5-5-5-5-5---|
Ab|---2-2-2-2-2-2-2-2-3-3-3-3-3-3-3-3---|
Eb|---0-0-0-0-0-0-0-0-------------------|

"...tear me open"

Bridge a: Guitar 1
Eb|------------------------------------------------------------------------------------------------|
Bb|------------------------------------------------------------------------------------------------|
Gb|---6--6-6-6-6--6-6-6-6-------6--6-6-6-6--6-6-6-6---------6--6-6-6-6--6-6-6-6--6-6-6-6-6-6-6-6---|
Db|---6--6-6-6-6--6-6-6-6--6-7--6--6-6-6-6--6-6-6-6--7-6-4--6--6-6-6-6--6-6-6-6--6-6-6-6-6-6-6-6---|
Ab|---4--4-4-4-4--4-4-4-4--6-7--4--4-4-4-4--4-4-4-4--7-6-4--4--4-4-4-4--4-4-4-4--4-4-4-4-4-4-4-4---|
Eb|------------------------4-5-----------------------5-4-2-----------------------------------------|
         .......  .......          .......  .......            .......  ........

Solo:Guitar 1
Eb|-4-4-----4-4-------2-2-----2-2-------2b--4-2b--4-2b-2-0---|
Bb|-----5-5-----5-5-------4-4-----4-4------------------------|
Gb|----------------------------------------------------------|
Db|----------------------------------------------------------|
Ab|----------------------------------------------------------|
Eb|----------------------------------------------------------|

Eb|-2-4-4-4-4-4-4--------------------------9-9----9-9----9---|
Bb|-------------------5---7-7-7-7-7-7------------------------|
Gb|-------------------------------------9b-----9b-----9b-----|
Db|----------------------------------------------------------|
Ab|----------------------------------------------------------|
Eb|----------------------------------------------------------|

Eb|-12-12-12-12-11-11-11-11---9-9-9-9-7-7-7-7---9-9-9-9-7-7-7-7---4-4-4-4-7-7-7-7---|
Bb|---------------------------------------------------------------------------------|
Gb|---------------------------------------------------------------------------------|
Db|---------------------------------------------------------------------------------|
Ab|---------------------------------------------------------------------------------|
Eb|---------------------------------------------------------------------------------|

Eb|-4---4-2-0-2---------9-9-9-9-9-9-9-9-9-9-9-9-9\4---|
Bb|-------------9-7-5---------------------------------|
Gb|---------------------------------------------------|
Db|---------------------------------------------------|
Ab|---------------------------------------------------|
Eb|---------------------------------------------------|

Eb|-11-11-11-11-11-11-11-11-11-11-11-11-11\4---|
Bb|--------------------------------------------|
Gb|--------------------------------------------|
Db|--------------------------------------------|
Ab|--------------------------------------------|
Eb|--------------------------------------------|

Eb|-12-12-12-12-12-12-12-12-12-12-12-12-14-14-14-14---|
Bb|---------------------------------------------------|
Gb|---------------------------------------------------|
Db|---------------------------------------------------|
Ab|---------------------------------------------------|
Eb|---------------------------------------------------|

Eb|-16-16-16-16-16-16-16-16-16-16-16-16-16-16---|
Bb|---------------------------------------------|
Gb|---------------------------------------------|
Db|---------------------------------------------|
Ab|---------------------------------------------|
Eb|---------------------------------------------|


eb|-16/17\16/17\16/17\16/17---|
Bb|---------------------------|
Gb|---------------------------|
Db|---------------------------|
Ab|---------------------------|
Eb|---------------------------|

Solo:Guitar 2
Eb|---------------------------------------------------------------------|
Bb|---------------------------------------------------------------------|
Gb|-----------------------------------6-6-6-6-6-6-6-6-2-2-2-2-2-2-2-2---|
Db|---2-2-2-2-2-2-2-2-4-4-4-4-4-4-4-4-6-6-6-6-6-6-6-6-2-2-2-2-2-2-2-2---|
Ab|---2-2-2-2-2-2-2-2-4-4-4-4-4-4-4-4-4-4-4-4-4-4-4-4-0-0-0-0-0-0-0-0---|
Eb|---0-0-0-0-0-0-0-0-2-2-2-2-2-2-2-2-----------------------------------|

Bridge b:Guitar 1
Eb|-------------------------------------|
Bb|-------------------------------------|
Gb|---6-6-6-6---------------------------|
Db|---6-6-6-6-6-6-6-6-2-2-2-2-6-6-6-6---|
Ab|---4-4-4-4-6-6-6-6-2-2-2-2-6-6-6-6---|
Eb|-----------4-4-4-4-0-0-0-0-4-4-4-4---|

"Cause i'm not giving up..."

Bridge c:Guitar 1
Eb|---------------------------------|
Bb|---------------------------------|
Gb|---------------------------------|
Db|---------------------------------|
Ab|---6-6-4-4-3-3-----3-3-4-4-6-6---|
Eb|---------------4-4---------------|

Chorus c:
Eb|-----------------------|
Bb|-----------------------|
Gb|---5-5-5-5---------2---|
Db|---5-5-5-5-6-6-6-6-2---|
Ab|---3-3-3-3-6-6-6-6-0---|
Eb|-----------4-4-4-4-----|

Outro:
Eb|-------------------------------------|
Bb|-------------------------------------|
Gb|---6-6-6-6---------------------------|
Db|---6-6-6-6-6-6-6-6-7-7-7-7-2-2-2-2---|
Ab|---4-4-4-4-6-6-6-6-7-7-7-7-2-2-2-2---|
Eb|-----------4-4-4-4-5-5-5-5-0-0-0-0---|

"These days are strange. It's true"

Eb|-------------------------------------|
Bb|-------------------------------------|
Gb|---6-6-6-6---------------------------|
Db|---6-6-6-6-7-7-7-7-2-2-2-2-2-2-2-2---|
Ab|---4-4-4-4-7-7-7-7-2-2-2-2-2-2-2-2---|
Eb|-----------5-5-5-5-0-0-0-0-4-4-4-4---|

"Not a thing I would change. No mistakes i'd undo."

Song Order:
-Intro a:x2
-Intro b:x2
-Intro c Guitar 1 & 2:x1
-Verse 1b:x1
-Verse 1c:x1
-Verse 1d:x1
-Chorus 1a:x2
-Chorus 1b:x1
-Verse 2a:x1
-Verse 2b:x1
-Verse 2c:x1
-Verse 2d:x1
-Chorus a:x3
-Chorus b:x1
-Bridge a:x1
-Solo Guitar 1:x1
-Solo Guitar 2:x4
-Bridge b:x4
-Bridge c:x1
-Chorus a:x3
-Chorus b:x1
-Chorus c:x1
-Outro:x1

            
            
Suggest correction
Creating personal tab
Creating personal tab
You can edit any tab online and save it as your Personal.

You can edit, replace or remove any tab part or add personal notes – all changes will be seen only by you.

Personal tabs can be accessed anytime from any device, even offline.
Learn more »
Give kudos to tab author, rate the tab!
1 2 3 4 5
comments
print report bad tab
guest
You may want to rate the tab now too:
select rating
Wanna post a correction for this tab? Suggest correction